  0
SECTION
  2
HEADER
  9
$ACADVER
  1
AC1015
  9
$ACADMAINTVER
 70
     6
  9
$DWGCODEPAGE
  3
ANSI_1254
  9
$INSBASE
 10
0.0
 20
0.0
 30
0.0
  9
$EXTMIN
 10
0.0
 20
0.0
 30
0.0
  9
$EXTMAX
 10
279.4
 20
215.9
 30
0.0
  9
$LIMMIN
 10
0.0
 20
0.0
  9
$LIMMAX
 10
279.4
 20
215.9
  9
$ORTHOMODE
 70
     0
  9
$REGENMODE
 70
     1
  9
$FILLMODE
 70
     1
  9
$QTEXTMODE
 70
     0
  9
$MIRRTEXT
 70
     1
  9
$LTSCALE
 40
1.0
  9
$ATTMODE
 70
     1
  9
$TEXTSIZE
 40
3.5
  9
$TRACEWID
 40
1.0
  9
$TEXTSTYLE
  7
Standard
  9
$CLAYER
  8
0
  9
$CELTYPE
  6
ByLayer
  9
$CECOLOR
 62
   256
  9
$CELTSCALE
 40
1.0
  9
$DISPSILH
 70
     0
  9
$DIMSCALE
 40
1.0
  9
$DIMASZ
 40
3.5
  9
$DIMEXO
 40
1.0
  9
$DIMDLI
 40
3.75
  9
$DIMRND
 40
0.0
  9
$DIMDLE
 40
0.0
  9
$DIMEXE
 40
1.0
  9
$DIMTP
 40
0.0
  9
$DIMTM
 40
0.0
  9
$DIMTXT
 40
3.5
  9
$DIMCEN
 40
2.5
  9
$DIMTSZ
 40
0.0
  9
$DIMTOL
 70
     0
  9
$DIMLIM
 70
     0
  9
$DIMTIH
 70
     1
  9
$DIMTOH
 70
     1
  9
$DIMSE1
 70
     0
  9
$DIMSE2
 70
     0
  9
$DIMTAD
 70
     1
  9
$DIMZIN
 70
     0
  9
$DIMBLK
  1

  9
$DIMASO
 70
     1
  9
$DIMSHO
 70
     1
  9
$DIMPOST
  1

  9
$DIMAPOST
  1

  9
$DIMALT
 70
     0
  9
$DIMALTD
 70
     3
  9
$DIMALTF
 40
0.0393700787
  9
$DIMLFAC
 40
1.0
  9
$DIMTOFL
 70
     1
  9
$DIMTVP
 40
0.0
  9
$DIMTIX
 70
     0
  9
$DIMSOXD
 70
     0
  9
$DIMSAH
 70
     0
  9
$DIMBLK1
  1

  9
$DIMBLK2
  1

  9
$DIMSTYLE
  2
ISO-25
  9
$DIMCLRD
 70
     0
  9
$DIMCLRE
 70
     0
  9
$DIMCLRT
 70
     0
  9
$DIMTFAC
 40
1.0
  9
$DIMGAP
 40
1.524
  9
$DIMJUST
 70
     0
  9
$DIMSD1
 70
     0
  9
$DIMSD2
 70
     0
  9
$DIMTOLJ
 70
     0
  9
$DIMTZIN
 70
     0
  9
$DIMALTZ
 70
     0
  9
$DIMALTTZ
 70
     0
  9
$DIMUPT
 70
     0
  9
$DIMDEC
 70
     2
  9
$DIMTDEC
 70
     2
  9
$DIMALTU
 70
     2
  9
$DIMALTTD
 70
     3
  9
$DIMTXSTY
  7
Standard
  9
$DIMAUNIT
 70
     0
  9
$DIMADEC
 70
     2
  9
$DIMALTRND
 40
0.0
  9
$DIMAZIN
 70
     0
  9
$DIMDSEP
 70
    44
  9
$DIMATFIT
 70
     3
  9
$DIMFRAC
 70
     0
  9
$DIMLDRBLK
  1

  9
$DIMLUNIT
 70
     2
  9
$DIMLWD
 70
    -2
  9
$DIMLWE
 70
    -2
  9
$DIMTMOVE
 70
     0
  9
$LUNITS
 70
     2
  9
$LUPREC
 70
     2
  9
$SKETCHINC
 40
1.0
  9
$FILLETRAD
 40
10.0
  9
$AUNITS
 70
     0
  9
$AUPREC
 70
     2
  9
$MENU
  1
.
  9
$ELEVATION
 40
0.0
  9
$PELEVATION
 40
0.0
  9
$THICKNESS
 40
0.0
  9
$LIMCHECK
 70
     0
  9
$CHAMFERA
 40
0.0
  9
$CHAMFERB
 40
0.0
  9
$CHAMFERC
 40
0.0
  9
$CHAMFERD
 40
0.0
  9
$SKPOLY
 70
     0
  9
$TDCREATE
 40
2459741.592556042
  9
$TDUCREATE
 40
2459741.467556042
  9
$TDUPDATE
 40
2459741.592558542
  9
$TDUUPDATE
 40
2459741.467558542
  9
$TDINDWG
 40
0.0000000116
  9
$TDUSRTIMER
 40
0.0000000116
  9
$USRTIMER
 70
     1
  9
$ANGBASE
 50
0.0
  9
$ANGDIR
 70
     0
  9
$PDMODE
 70
     0
  9
$PDSIZE
 40
-1.0
  9
$PLINEWID
 40
0.0
  9
$SPLFRAME
 70
     0
  9
$SPLINETYPE
 70
     6
  9
$SPLINESEGS
 70
     8
  9
$HANDSEED
  5
1BC
  9
$SURFTAB1
 70
     6
  9
$SURFTAB2
 70
     6
  9
$SURFTYPE
 70
     6
  9
$SURFU
 70
     6
  9
$SURFV
 70
     6
  9
$UCSBASE
  2

  9
$UCSNAME
  2

  9
$UCSORG
 10
0.0
 20
0.0
 30
0.0
  9
$UCSXDIR
 10
1.0
 20
0.0
 30
0.0
  9
$UCSYDIR
 10
0.0
 20
1.0
 30
0.0
  9
$UCSORTHOREF
  2

  9
$UCSORTHOVIEW
 70
     0
  9
$UCSORGTOP
 10
0.0
 20
0.0
 30
0.0
  9
$UCSORGBOTTOM
 10
0.0
 20
0.0
 30
0.0
  9
$UCSORGLEFT
 10
0.0
 20
0.0
 30
0.0
  9
$UCSORGRIGHT
 10
0.0
 20
0.0
 30
0.0
  9
$UCSORGFRONT
 10
0.0
 20
0.0
 30
0.0
  9
$UCSORGBACK
 10
0.0
 20
0.0
 30
0.0
  9
$PUCSBASE
  2

  9
$PUCSNAME
  2

  9
$PUCSORG
 10
0.0
 20
0.0
 30
0.0
  9
$PUCSXDIR
 10
1.0
 20
0.0
 30
0.0
  9
$PUCSYDIR
 10
0.0
 20
1.0
 30
0.0
  9
$PUCSORTHOREF
  2

  9
$PUCSORTHOVIEW
 70
     0
  9
$PUCSORGTOP
 10
0.0
 20
0.0
 30
0.0
  9
$PUCSORGBOTTOM
 10
0.0
 20
0.0
 30
0.0
  9
$PUCSORGLEFT
 10
0.0
 20
0.0
 30
0.0
  9
$PUCSORGRIGHT
 10
0.0
 20
0.0
 30
0.0
  9
$PUCSORGFRONT
 10
0.0
 20
0.0
 30
0.0
  9
$PUCSORGBACK
 10
0.0
 20
0.0
 30
0.0
  9
$USERI1
 70
     0
  9
$USERI2
 70
     0
  9
$USERI3
 70
     0
  9
$USERI4
 70
     0
  9
$USERI5
 70
     0
  9
$USERR1
 40
0.0
  9
$USERR2
 40
0.0
  9
$USERR3
 40
0.0
  9
$USERR4
 40
0.0
  9
$USERR5
 40
0.0
  9
$WORLDVIEW
 70
     1
  9
$SHADEDGE
 70
     3
  9
$SHADEDIF
 70
    70
  9
$TILEMODE
 70
     1
  9
$MAXACTVP
 70
    64
  9
$PINSBASE
 10
0.0
 20
0.0
 30
0.0
  9
$PLIMCHECK
 70
     0
  9
$PEXTMIN
 10
1.0000000000E+20
 20
1.0000000000E+20
 30
1.0000000000E+20
  9
$PEXTMAX
 10
-1.0000000000E+20
 20
-1.0000000000E+20
 30
-1.0000000000E+20
  9
$PLIMMIN
 10
0.0
 20
0.0
  9
$PLIMMAX
 10
420.0
 20
297.0
  9
$UNITMODE
 70
     0
  9
$VISRETAIN
 70
     1
  9
$PLINEGEN
 70
     0
  9
$PSLTSCALE
 70
     1
  9
$TREEDEPTH
 70
  3020
  9
$CMLSTYLE
  2
Standard
  9
$CMLJUST
 70
     0
  9
$CMLSCALE
 40
20.0
  9
$PROXYGRAPHICS
 70
     1
  9
$MEASUREMENT
 70
     1
  9
$CELWEIGHT
370
    -1
  9
$ENDCAPS
280
     0
  9
$JOINSTYLE
280
     0
  9
$LWDISPLAY
290
     1
  9
$INSUNITS
 70
     4
  9
$HYPERLINKBASE
  1

  9
$STYLESHEET
  1

  9
$XEDIT
290
     1
  9
$CEPSNTYPE
380
     0
  9
$PSTYLEMODE
290
     1
  9
$FINGERPRINTGUID
  2
{3235141c-80b5-4769-aa8c-56ad86a32bea}
  9
$VERSIONGUID
  2
{FAEB1C32-E019-11D5-929B-00C0DF256EC4}
  9
$EXTNAMES
290
     1
  9
$PSVPSCALE
 40
0.0
  9
$OLESTARTUP
290
     0
  0
ENDSEC
  0
SECTION
  2
CLASSES
  0
CLASS
  1
ACDBDICTIONARYWDFLT
  2
AcDbDictionaryWithDefault
  3
ObjectDBX Classes
 90
        0
280
     0
281
     0
  0
CLASS
  1
VISUALSTYLE
  2
AcDbVisualStyle
  3
ObjectDBX Classes
 90
     4095
280
     0
281
     0
  0
CLASS
  1
MATERIAL
  2
AcDbMaterial
  3
ObjectDBX Classes
 90
     1153
280
     0
281
     0
  0
CLASS
  1
SCALE
  2
AcDbScale
  3
ObjectDBX Classes
 90
     1153
280
     0
281
     0
  0
CLASS
  1
TABLESTYLE
  2
AcDbTableStyle
  3
ObjectDBX Classes
 90
     4095
280
     0
281
     0
  0
CLASS
  1
MLEADERSTYLE
  2
AcDbMLeaderStyle
  3
ACDB_MLEADERSTYLE_CLASS
 90
     4095
280
     0
281
     0
  0
CLASS
  1
SUN
  2
AcDbSun
  3
SCENEOE
 90
     1153
280
     0
281
     0
  0
CLASS
  1
ACDBPLACEHOLDER
  2
AcDbPlaceHolder
  3
ObjectDBX Classes
 90
        0
280
     0
281
     0
  0
CLASS
  1
LAYOUT
  2
AcDbLayout
  3
ObjectDBX Classes
 90
        0
280
     0
281
     0
  0
ENDSEC
  0
SECTION
  2
TABLES
  0
TABLE
  2
VPORT
  5
8
330
0
100
AcDbSymbolTable
 70
     1
  0
VPORT
  5
29
330
8
100
AcDbSymbolTableRecord
100
AcDbViewportTableRecord
  2
*Active
 70
     0
 10
0.0
 20
0.0
 11
1.0
 21
1.0
 12
139.7
 22
107.95
 13
0.0
 23
0.0
 14
10.0
 24
10.0
 15
10.0
 25
10.0
 16
0.0
 26
0.0
 36
1.0
 17
0.0
 27
0.0
 37
0.0
 40
215.9
 41
1.2941176471
 42
50.0
 43
0.0
 44
0.0
 50
0.0
 51
0.0
 71
     0
 72
  2000
 73
     1
 74
     3
 75
     0
 76
     0
 77
     0
 78
     0
281
     0
 65
     1
110
0.0
120
0.0
130
0.0
111
1.0
121
0.0
131
0.0
112
0.0
122
1.0
132
0.0
 79
     0
146
0.0
  0
ENDTAB
  0
TABLE
  2
LTYPE
  5
5
330
0
100
AcDbSymbolTable
 70
     6
  0
LTYPE
  5
14
330
5
100
AcDbSymbolTableRecord
100
AcDbLinetypeTableRecord
  2
ByBlock
 70
     0
  3

 72
    65
 73
     0
 40
0.0
  0
LTYPE
  5
15
330
5
100
AcDbSymbolTableRecord
100
AcDbLinetypeTableRecord
  2
ByLayer
 70
     0
  3

 72
    65
 73
     0
 40
0.0
  0
LTYPE
  5
16
330
5
100
AcDbSymbolTableRecord
100
AcDbLinetypeTableRecord
  2
Continuous
 70
     0
  3
Solid line
 72
    65
 73
     0
 40
0.0
  0
LTYPE
  5
6E
330
5
100
AcDbSymbolTableRecord
100
AcDbLinetypeTableRecord
  2
HIDDEN
 70
     0
  3
Hidden __ __ __ __ __ __ __ __ __ __ __ __ __ __
 72
    65
 73
     2
 40
1.905
 49
1.27
 74
     0
 49
-0.635
 74
     0
  0
LTYPE
  5
6F
330
5
100
AcDbSymbolTableRecord
100
AcDbLinetypeTableRecord
  2
PHANTOM
 70
     0
  3
Phantom ______  __  __  ______  __  __  ______
 72
    65
 73
     6
 40
12.7
 49
6.35
 74
     0
 49
-1.27
 74
     0
 49
1.27
 74
     0
 49
-1.27
 74
     0
 49
1.27
 74
     0
 49
-1.27
 74
     0
  0
LTYPE
  5
70
330
5
100
AcDbSymbolTableRecord
100
AcDbLinetypeTableRecord
  2
CENTER
 70
     0
  3
Center ____ _ ____ _ ____ _ ____ _ ____ _ ____
 72
    65
 73
     4
 40
10.16
 49
6.35
 74
     0
 49
-1.27
 74
     0
 49
1.27
 74
     0
 49
-1.27
 74
     0
  0
LTYPE
  5
71
330
5
100
AcDbSymbolTableRecord
100
AcDbLinetypeTableRecord
  2
CENTERX2
 70
     0
  3
Center (2x) ________  __  ________  __  _____
 72
    65
 73
     4
 40
20.32
 49
12.7
 74
     0
 49
-2.54
 74
     0
 49
2.54
 74
     0
 49
-2.54
 74
     0
  0
LTYPE
  5
72
330
5
100
AcDbSymbolTableRecord
100
AcDbLinetypeTableRecord
  2
DOT2
 70
     0
  3
Dot (.5x) ........................................
 72
    65
 73
     2
 40
0.635
 49
0.0
 74
     0
 49
-0.635
 74
     0
  0
ENDTAB
  0
TABLE
  2
LAYER
  5
2
330
0
100
AcDbSymbolTable
 70
    17
  0
LAYER
  5
10
330
2
100
AcDbSymbolTableRecord
100
AcDbLayerTableRecord
  2
0
 70
     0
 62
     7
  6
Continuous
370
    -3
390
F
  0
LAYER
  5
73
330
2
100
AcDbSymbolTableRecord
100
AcDbLayerTableRecord
  2
FORMAT
 70
     0
 62
     7
  6
Continuous
370
    -3
390
F
  0
LAYER
  5
74
330
2
100
AcDbSymbolTableRecord
100
AcDbLayerTableRecord
  2
YARDIMCI_GEOMETRI
 70
     0
 62
    -6
  6
Continuous
290
     0
370
    -3
390
F
  0
LAYER
  5
75
330
2
100
AcDbSymbolTableRecord
100
AcDbLayerTableRecord
  2
SAYFA_CERCEVESI
 70
     0
 62
     7
  6
Continuous
370
    25
390
F
  0
LAYER
  5
76
330
2
100
AcDbSymbolTableRecord
100
AcDbLayerTableRecord
  2
ANTET
 70
     0
 62
     7
  6
Continuous
370
    -3
390
F
  0
LAYER
  5
77
330
2
100
AcDbSymbolTableRecord
100
AcDbLayerTableRecord
  2
OLCU
 70
     0
 62
   150
  6
Continuous
370
    -3
390
F
  0
LAYER
  5
78
330
2
100
AcDbSymbolTableRecord
100
AcDbLayerTableRecord
  2
METIN
 70
     0
 62
    96
  6
Continuous
370
    -3
390
F
  0
LAYER
  5
79
330
2
100
AcDbSymbolTableRecord
100
AcDbLayerTableRecord
  2
BALON
 70
     0
 62
     5
  6
Continuous
370
    -3
390
F
  0
LAYER
  5
7A
330
2
100
AcDbSymbolTableRecord
100
AcDbLayerTableRecord
  2
VURGU
 70
     0
 62
     7
  6
Continuous
370
    -3
390
F
  0
LAYER
  5
7B
330
2
100
AcDbSymbolTableRecord
100
AcDbLayerTableRecord
  2
SILIK
 70
     0
 62
     7
  6
Continuous
370
    -3
390
F
  0
LAYER
  5
7C
330
2
100
AcDbSymbolTableRecord
100
AcDbLayerTableRecord
  2
MODEL
 70
     0
 62
     7
  6
Continuous
370
    -3
390
F
  0
LAYER
  5
7D
330
2
100
AcDbSymbolTableRecord
100
AcDbLayerTableRecord
  2
DETAYLANDıRMA
 70
     0
 62
   190
  6
Continuous
370
    -3
390
F
  0
LAYER
  5
7E
330
2
100
AcDbSymbolTableRecord
100
AcDbLayerTableRecord
  2
TOLERANS
 70
     0
 62
   230
  6
Continuous
370
    -3
390
F
  0
LAYER
  5
7F
330
2
100
AcDbSymbolTableRecord
100
AcDbLayerTableRecord
  2
MERKEZ_CIZGILERI
 70
     0
 62
    30
  6
Continuous
370
    -3
390
F
  0
LAYER
  5
80
330
2
100
AcDbSymbolTableRecord
100
AcDbLayerTableRecord
  2
KESIT-DETAY_CIZGILERI
 70
     0
 62
     7
  6
Continuous
370
    -3
390
F
  0
LAYER
  5
81
330
2
100
AcDbSymbolTableRecord
100
AcDbLayerTableRecord
  2
\U+041E\U+0421\U+0415\U+0412\U+042B\U+0415
 70
     0
 62
     7
  6
Continuous
370
    -3
390
F
  0
LAYER
  5
82
330
2
100
AcDbSymbolTableRecord
100
AcDbLayerTableRecord
  2
\U+0412\U+041E\U+0414\U+042F\U+041D\U+042B\U+0415_\U+0417\U+041D\U+0410\U+041A\U+0418
 70
     0
 62
    11
  6
Continuous
370
    -3
390
F
  0
ENDTAB
  0
TABLE
  2
STYLE
  5
3
330
0
100
AcDbSymbolTable
 70
     1
  0
STYLE
  5
11
330
3
100
AcDbSymbolTableRecord
100
AcDbTextStyleTableRecord
  2
Standard
 70
     0
 40
0.0
 41
1.0
 50
0.0
 71
     0
 42
3.5
  3
txt
  4

  0
ENDTAB
  0
TABLE
  2
VIEW
  5
6
330
0
100
AcDbSymbolTable
 70
     0
  0
ENDTAB
  0
TABLE
  2
UCS
  5
7
330
0
100
AcDbSymbolTable
 70
     0
  0
ENDTAB
  0
TABLE
  2
APPID
  5
9
330
0
100
AcDbSymbolTable
 70
     1
  0
APPID
  5
12
330
9
100
AcDbSymbolTableRecord
100
AcDbRegAppTableRecord
  2
ACAD
 70
     0
  0
ENDTAB
  0
TABLE
  2
DIMSTYLE
  5
A
330
0
100
AcDbSymbolTable
 70
     1
100
AcDbDimStyleTable
  0
DIMSTYLE
105
27
330
A
100
AcDbSymbolTableRecord
100
AcDbDimStyleTableRecord
  2
ISO-25
 70
     0
 41
2.5
 42
0.625
 43
3.75
 44
1.25
 73
     0
 74
     0
 77
     1
 78
     8
140
2.5
141
2.5
143
0.0393700787
147
0.625
171
     3
172
     1
178
     0
271
     2
272
     2
274
     3
278
    44
283
     0
284
     8
340
11
  0
ENDTAB
  0
TABLE
  2
BLOCK_RECORD
  5
1
330
0
100
AcDbSymbolTable
 70
    14
  0
BLOCK_RECORD
  5
1F
330
1
100
AcDbSymbolTableRecord
100
AcDbBlockTableRecord
  2
*Model_Space
340
22
  0
BLOCK_RECORD
  5
1B
330
1
100
AcDbSymbolTableRecord
100
AcDbBlockTableRecord
  2
*Paper_Space
340
1E
  0
BLOCK_RECORD
  5
23
330
1
100
AcDbSymbolTableRecord
100
AcDbBlockTableRecord
  2
*Paper_Space0
340
26
  0
BLOCK_RECORD
  5
9F
330
1
100
AcDbSymbolTableRecord
100
AcDbBlockTableRecord
  2
SW_CENTERMARKSYMBOL_0
340
0
102
{BLKREFS
331
AA
102
}
  0
BLOCK_RECORD
  5
AB
330
1
100
AcDbSymbolTableRecord
100
AcDbBlockTableRecord
  2
SW_CENTERMARKSYMBOL_1
340
0
102
{BLKREFS
331
B6
102
}
  0
BLOCK_RECORD
  5
B7
330
1
100
AcDbSymbolTableRecord
100
AcDbBlockTableRecord
  2
SW_CENTERMARKSYMBOL_2
340
0
102
{BLKREFS
331
C2
102
}
  0
BLOCK_RECORD
  5
C3
330
1
100
AcDbSymbolTableRecord
100
AcDbBlockTableRecord
  2
SW_CENTERMARKSYMBOL_3
340
0
102
{BLKREFS
331
CE
102
}
  0
BLOCK_RECORD
  5
CF
330
1
100
AcDbSymbolTableRecord
100
AcDbBlockTableRecord
  2
SW_CENTERMARKSYMBOL_4
340
0
102
{BLKREFS
331
DA
102
}
  0
BLOCK_RECORD
  5
DB
330
1
100
AcDbSymbolTableRecord
100
AcDbBlockTableRecord
  2
SW_CENTERMARKSYMBOL_5
340
0
102
{BLKREFS
331
E6
102
}
  0
BLOCK_RECORD
  5
E7
330
1
100
AcDbSymbolTableRecord
100
AcDbBlockTableRecord
  2
SW_CENTERMARKSYMBOL_6
340
0
102
{BLKREFS
331
F2
102
}
  0
BLOCK_RECORD
  5
F3
330
1
100
AcDbSymbolTableRecord
100
AcDbBlockTableRecord
  2
SW_CENTERMARKSYMBOL_7
340
0
102
{BLKREFS
331
FE
102
}
  0
BLOCK_RECORD
  5
FF
330
1
100
AcDbSymbolTableRecord
100
AcDbBlockTableRecord
  2
SW_CENTERMARKSYMBOL_8
340
0
102
{BLKREFS
331
10A
102
}
  0
BLOCK_RECORD
  5
10B
330
1
100
AcDbSymbolTableRecord
100
AcDbBlockTableRecord
  2
SW_CENTERMARKSYMBOL_9
340
0
102
{BLKREFS
331
116
102
}
  0
BLOCK_RECORD
  5
117
330
1
100
AcDbSymbolTableRecord
100
AcDbBlockTableRecord
  2
SW_CENTERMARKSYMBOL_10
340
0
102
{BLKREFS
331
122
102
}
  0
BLOCK_RECORD
  5
123
330
1
100
AcDbSymbolTableRecord
100
AcDbBlockTableRecord
  2
SW_CENTERMARKSYMBOL_11
340
0
102
{BLKREFS
331
12E
102
}
  0
BLOCK_RECORD
  5
12F
330
1
100
AcDbSymbolTableRecord
100
AcDbBlockTableRecord
  2
SW_CENTERMARKSYMBOL_12
340
0
102
{BLKREFS
331
13A
102
}
  0
ENDTAB
  0
ENDSEC
  0
SECTION
  2
BLOCKS
  0
BLOCK
  5
20
330
1F
100
AcDbEntity
  8
0
100
AcDbBlockBegin
  2
*Model_Space
 70
     0
 10
0.0
 20
0.0
 30
0.0
  3
*Model_Space
  1

  0
ENDBLK
  5
21
330
1F
100
AcDbEntity
  8
0
100
AcDbBlockEnd
  0
BLOCK
  5
1C
330
1B
100
AcDbEntity
 67
     1
  8
0
100
AcDbBlockBegin
  2
*Paper_Space
 70
     0
 10
0.0
 20
0.0
 30
0.0
  3
*Paper_Space
  1

  0
ENDBLK
  5
1D
330
1B
100
AcDbEntity
 67
     1
  8
0
100
AcDbBlockEnd
  0
BLOCK
  5
24
330
23
100
AcDbEntity
  8
0
100
AcDbBlockBegin
  2
*Paper_Space0
 70
     0
 10
0.0
 20
0.0
 30
0.0
  3
*Paper_Space0
  1

  0
ENDBLK
  5
25
330
23
100
AcDbEntity
  8
0
100
AcDbBlockEnd
  0
BLOCK
  5
A0
330
9F
100
AcDbEntity
  8
0
100
AcDbBlockBegin
  2
SW_CENTERMARKSYMBOL_0
 70
     0
 10
0.0
 20
0.0
 30
0.0
  3
SW_CENTERMARKSYMBOL_0
  1

  0
LINE
  5
A2
330
9F
100
AcDbEntity
  8
FORMAT
 62
     0
100
AcDbLine
 10
0.0
 20
0.0
 30
0.0
 11
0.0
 21
2.5
 31
0.0
  0
LINE
  5
A3
330
9F
100
AcDbEntity
  8
FORMAT
 62
     0
100
AcDbLine
 10
0.0
 20
0.0
 30
0.0
 11
-2.5
 21
0.0
 31
0.0
  0
LINE
  5
A4
330
9F
100
AcDbEntity
  8
FORMAT
 62
     0
100
AcDbLine
 10
0.0
 20
0.0
 30
0.0
 11
0.0
 21
-2.5
 31
0.0
  0
LINE
  5
A5
330
9F
100
AcDbEntity
  8
FORMAT
 62
     0
100
AcDbLine
 10
0.0
 20
0.0
 30
0.0
 11
2.5
 21
0.0
 31
0.0
  0
LINE
  5
A6
330
9F
100
AcDbEntity
  8
FORMAT
 62
     0
100
AcDbLine
 10
0.0
 20
5.0
 30
0.0
 11
0.0
 21
241.5
 31
0.0
  0
LINE
  5
A7
330
9F
100
AcDbEntity
  8
FORMAT
 62
     0
100
AcDbLine
 10
-5.0
 20
0.0
 30
0.0
 11
-241.5
 21
0.0
 31
0.0
  0
LINE
  5
A8
330
9F
100
AcDbEntity
  8
FORMAT
 62
     0
100
AcDbLine
 10
0.0
 20
-5.0
 30
0.0
 11
0.0
 21
-241.5
 31
0.0
  0
LINE
  5
A9
330
9F
100
AcDbEntity
  8
FORMAT
 62
     0
100
AcDbLine
 10
5.0
 20
0.0
 30
0.0
 11
241.5
 21
0.0
 31
0.0
  0
ENDBLK
  5
A1
330
9F
100
AcDbEntity
  8
0
100
AcDbBlockEnd
  0
BLOCK
  5
AC
330
AB
100
AcDbEntity
  8
0
100
AcDbBlockBegin
  2
SW_CENTERMARKSYMBOL_1
 70
     0
 10
0.0
 20
0.0
 30
0.0
  3
SW_CENTERMARKSYMBOL_1
  1

  0
LINE
  5
AE
330
AB
100
AcDbEntity
  8
FORMAT
 62
     0
100
AcDbLine
 10
0.0
 20
0.0
 30
0.0
 11
0.0
 21
2.5
 31
0.0
  0
LINE
  5
AF
330
AB
100
AcDbEntity
  8
FORMAT
 62
     0
100
AcDbLine
 10
0.0
 20
0.0
 30
0.0
 11
-2.5
 21
0.0
 31
0.0
  0
LINE
  5
B0
330
AB
100
AcDbEntity
  8
FORMAT
 62
     0
100
AcDbLine
 10
0.0
 20
0.0
 30
0.0
 11
0.0
 21
-2.5
 31
0.0
  0
LINE
  5
B1
330
AB
100
AcDbEntity
  8
FORMAT
 62
     0
100
AcDbLine
 10
0.0
 20
0.0
 30
0.0
 11
2.5
 21
0.0
 31
0.0
  0
LINE
  5
B2
330
AB
100
AcDbEntity
  8
FORMAT
 62
     0
100
AcDbLine
 10
0.0
 20
5.0
 30
0.0
 11
0.0
 21
15.5
 31
0.0
  0
LINE
  5
B3
330
AB
100
AcDbEntity
  8
FORMAT
 62
     0
100
AcDbLine
 10
-5.0
 20
0.0
 30
0.0
 11
-15.5
 21
0.0
 31
0.0
  0
LINE
  5
B4
330
AB
100
AcDbEntity
  8
FORMAT
 62
     0
100
AcDbLine
 10
0.0
 20
-5.0
 30
0.0
 11
0.0
 21
-15.5
 31
0.0
  0
LINE
  5
B5
330
AB
100
AcDbEntity
  8
FORMAT
 62
     0
100
AcDbLine
 10
5.0
 20
0.0
 30
0.0
 11
15.5
 21
0.0
 31
0.0
  0
ENDBLK
  5
AD
330
AB
100
AcDbEntity
  8
0
100
AcDbBlockEnd
  0
BLOCK
  5
B8
330
B7
100
AcDbEntity
  8
0
100
AcDbBlockBegin
  2
SW_CENTERMARKSYMBOL_2
 70
     0
 10
0.0
 20
0.0
 30
0.0
  3
SW_CENTERMARKSYMBOL_2
  1

  0
LINE
  5
BA
330
B7
100
AcDbEntity
  8
FORMAT
 62
     0
100
AcDbLine
 10
0.0
 20
0.0
 30
0.0
 11
0.0
 21
2.5
 31
0.0
  0
LINE
  5
BB
330
B7
100
AcDbEntity
  8
FORMAT
 62
     0
100
AcDbLine
 10
0.0
 20
0.0
 30
0.0
 11
-2.5
 21
0.0
 31
0.0
  0
LINE
  5
BC
330
B7
100
AcDbEntity
  8
FORMAT
 62
     0
100
AcDbLine
 10
0.0
 20
0.0
 30
0.0
 11
0.0
 21
-2.5
 31
0.0
  0
LINE
  5
BD
330
B7
100
AcDbEntity
  8
FORMAT
 62
     0
100
AcDbLine
 10
0.0
 20
0.0
 30
0.0
 11
2.5
 21
0.0
 31
0.0
  0
LINE
  5
BE
330
B7
100
AcDbEntity
  8
FORMAT
 62
     0
100
AcDbLine
 10
0.0
 20
5.0
 30
0.0
 11
0.0
 21
15.5
 31
0.0
  0
LINE
  5
BF
330
B7
100
AcDbEntity
  8
FORMAT
 62
     0
100
AcDbLine
 10
-5.0
 20
0.0
 30
0.0
 11
-15.5
 21
0.0
 31
0.0
  0
LINE
  5
C0
330
B7
100
AcDbEntity
  8
FORMAT
 62
     0
100
AcDbLine
 10
0.0
 20
-5.0
 30
0.0
 11
0.0
 21
-15.5
 31
0.0
  0
LINE
  5
C1
330
B7
100
AcDbEntity
  8
FORMAT
 62
     0
100
AcDbLine
 10
5.0
 20
0.0
 30
0.0
 11
15.5
 21
0.0
 31
0.0
  0
ENDBLK
  5
B9
330
B7
100
AcDbEntity
  8
0
100
AcDbBlockEnd
  0
BLOCK
  5
C4
330
C3
100
AcDbEntity
  8
0
100
AcDbBlockBegin
  2
SW_CENTERMARKSYMBOL_3
 70
     0
 10
0.0
 20
0.0
 30
0.0
  3
SW_CENTERMARKSYMBOL_3
  1

  0
LINE
  5
C6
330
C3
100
AcDbEntity
  8
FORMAT
 62
     0
100
AcDbLine
 10
0.0
 20
0.0
 30
0.0
 11
0.0
 21
2.5
 31
0.0
  0
LINE
  5
C7
330
C3
100
AcDbEntity
  8
FORMAT
 62
     0
100
AcDbLine
 10
0.0
 20
0.0
 30
0.0
 11
-2.5
 21
0.0
 31
0.0
  0
LINE
  5
C8
330
C3
100
AcDbEntity
  8
FORMAT
 62
     0
100
AcDbLine
 10
0.0
 20
0.0
 30
0.0
 11
0.0
 21
-2.5
 31
0.0
  0
LINE
  5
C9
330
C3
100
AcDbEntity
  8
FORMAT
 62
     0
100
AcDbLine
 10
0.0
 20
0.0
 30
0.0
 11
2.5
 21
0.0
 31
0.0
  0
LINE
  5
CA
330
C3
100
AcDbEntity
  8
FORMAT
 62
     0
100
AcDbLine
 10
0.0
 20
5.0
 30
0.0
 11
0.0
 21
15.5
 31
0.0
  0
LINE
  5
CB
330
C3
100
AcDbEntity
  8
FORMAT
 62
     0
100
AcDbLine
 10
-5.0
 20
0.0
 30
0.0
 11
-15.5
 21
0.0
 31
0.0
  0
LINE
  5
CC
330
C3
100
AcDbEntity
  8
FORMAT
 62
     0
100
AcDbLine
 10
0.0
 20
-5.0
 30
0.0
 11
0.0
 21
-15.5
 31
0.0
  0
LINE
  5
CD
330
C3
100
AcDbEntity
  8
FORMAT
 62
     0
100
AcDbLine
 10
5.0
 20
0.0
 30
0.0
 11
15.5
 21
0.0
 31
0.0
  0
ENDBLK
  5
C5
330
C3
100
AcDbEntity
  8
0
100
AcDbBlockEnd
  0
BLOCK
  5
D0
330
CF
100
AcDbEntity
  8
0
100
AcDbBlockBegin
  2
SW_CENTERMARKSYMBOL_4
 70
     0
 10
0.0
 20
0.0
 30
0.0
  3
SW_CENTERMARKSYMBOL_4
  1

  0
LINE
  5
D2
330
CF
100
AcDbEntity
  8
FORMAT
 62
     0
100
AcDbLine
 10
0.0
 20
0.0
 30
0.0
 11
0.0
 21
2.5
 31
0.0
  0
LINE
  5
D3
330
CF
100
AcDbEntity
  8
FORMAT
 62
     0
100
AcDbLine
 10
0.0
 20
0.0
 30
0.0
 11
-2.5
 21
0.0
 31
0.0
  0
LINE
  5
D4
330
CF
100
AcDbEntity
  8
FORMAT
 62
     0
100
AcDbLine
 10
0.0
 20
0.0
 30
0.0
 11
0.0
 21
-2.5
 31
0.0
  0
LINE
  5
D5
330
CF
100
AcDbEntity
  8
FORMAT
 62
     0
100
AcDbLine
 10
0.0
 20
0.0
 30
0.0
 11
2.5
 21
0.0
 31
0.0
  0
LINE
  5
D6
330
CF
100
AcDbEntity
  8
FORMAT
 62
     0
100
AcDbLine
 10
0.0
 20
5.0
 30
0.0
 11
0.0
 21
15.5
 31
0.0
  0
LINE
  5
D7
330
CF
100
AcDbEntity
  8
FORMAT
 62
     0
100
AcDbLine
 10
-5.0
 20
0.0
 30
0.0
 11
-15.5
 21
0.0
 31
0.0
  0
LINE
  5
D8
330
CF
100
AcDbEntity
  8
FORMAT
 62
     0
100
AcDbLine
 10
0.0
 20
-5.0
 30
0.0
 11
0.0
 21
-15.5
 31
0.0
  0
LINE
  5
D9
330
CF
100
AcDbEntity
  8
FORMAT
 62
     0
100
AcDbLine
 10
5.0
 20
0.0
 30
0.0
 11
15.5
 21
0.0
 31
0.0
  0
ENDBLK
  5
D1
330
CF
100
AcDbEntity
  8
0
100
AcDbBlockEnd
  0
BLOCK
  5
DC
330
DB
100
AcDbEntity
  8
0
100
AcDbBlockBegin
  2
SW_CENTERMARKSYMBOL_5
 70
     0
 10
0.0
 20
0.0
 30
0.0
  3
SW_CENTERMARKSYMBOL_5
  1

  0
LINE
  5
DE
330
DB
100
AcDbEntity
  8
FORMAT
 62
     0
100
AcDbLine
 10
0.0
 20
0.0
 30
0.0
 11
0.0
 21
2.5
 31
0.0
  0
LINE
  5
DF
330
DB
100
AcDbEntity
  8
FORMAT
 62
     0
100
AcDbLine
 10
0.0
 20
0.0
 30
0.0
 11
-2.5
 21
0.0
 31
0.0
  0
LINE
  5
E0
330
DB
100
AcDbEntity
  8
FORMAT
 62
     0
100
AcDbLine
 10
0.0
 20
0.0
 30
0.0
 11
0.0
 21
-2.5
 31
0.0
  0
LINE
  5
E1
330
DB
100
AcDbEntity
  8
FORMAT
 62
     0
100
AcDbLine
 10
0.0
 20
0.0
 30
0.0
 11
2.5
 21
0.0
 31
0.0
  0
LINE
  5
E2
330
DB
100
AcDbEntity
  8
FORMAT
 62
     0
100
AcDbLine
 10
0.0
 20
5.0
 30
0.0
 11
0.0
 21
16.5
 31
0.0
  0
LINE
  5
E3
330
DB
100
AcDbEntity
  8
FORMAT
 62
     0
100
AcDbLine
 10
-5.0
 20
0.0
 30
0.0
 11
-16.5
 21
0.0
 31
0.0
  0
LINE
  5
E4
330
DB
100
AcDbEntity
  8
FORMAT
 62
     0
100
AcDbLine
 10
0.0
 20
-5.0
 30
0.0
 11
0.0
 21
-16.5
 31
0.0
  0
LINE
  5
E5
330
DB
100
AcDbEntity
  8
FORMAT
 62
     0
100
AcDbLine
 10
5.0
 20
0.0
 30
0.0
 11
16.5
 21
0.0
 31
0.0
  0
ENDBLK
  5
DD
330
DB
100
AcDbEntity
  8
0
100
AcDbBlockEnd
  0
BLOCK
  5
E8
330
E7
100
AcDbEntity
  8
0
100
AcDbBlockBegin
  2
SW_CENTERMARKSYMBOL_6
 70
     0
 10
0.0
 20
0.0
 30
0.0
  3
SW_CENTERMARKSYMBOL_6
  1

  0
LINE
  5
EA
330
E7
100
AcDbEntity
  8
FORMAT
 62
     0
100
AcDbLine
 10
0.0
 20
0.0
 30
0.0
 11
0.0
 21
2.5
 31
0.0
  0
LINE
  5
EB
330
E7
100
AcDbEntity
  8
FORMAT
 62
     0
100
AcDbLine
 10
0.0
 20
0.0
 30
0.0
 11
-2.5
 21
0.0
 31
0.0
  0
LINE
  5
EC
330
E7
100
AcDbEntity
  8
FORMAT
 62
     0
100
AcDbLine
 10
0.0
 20
0.0
 30
0.0
 11
0.0
 21
-2.5
 31
0.0
  0
LINE
  5
ED
330
E7
100
AcDbEntity
  8
FORMAT
 62
     0
100
AcDbLine
 10
0.0
 20
0.0
 30
0.0
 11
2.5
 21
0.0
 31
0.0
  0
LINE
  5
EE
330
E7
100
AcDbEntity
  8
FORMAT
 62
     0
100
AcDbLine
 10
0.0
 20
5.0
 30
0.0
 11
0.0
 21
16.5
 31
0.0
  0
LINE
  5
EF
330
E7
100
AcDbEntity
  8
FORMAT
 62
     0
100
AcDbLine
 10
-5.0
 20
0.0
 30
0.0
 11
-16.5
 21
0.0
 31
0.0
  0
LINE
  5
F0
330
E7
100
AcDbEntity
  8
FORMAT
 62
     0
100
AcDbLine
 10
0.0
 20
-5.0
 30
0.0
 11
0.0
 21
-16.5
 31
0.0
  0
LINE
  5
F1
330
E7
100
AcDbEntity
  8
FORMAT
 62
     0
100
AcDbLine
 10
5.0
 20
0.0
 30
0.0
 11
16.5
 21
0.0
 31
0.0
  0
ENDBLK
  5
E9
330
E7
100
AcDbEntity
  8
0
100
AcDbBlockEnd
  0
BLOCK
  5
F4
330
F3
100
AcDbEntity
  8
0
100
AcDbBlockBegin
  2
SW_CENTERMARKSYMBOL_7
 70
     0
 10
0.0
 20
0.0
 30
0.0
  3
SW_CENTERMARKSYMBOL_7
  1

  0
LINE
  5
F6
330
F3
100
AcDbEntity
  8
FORMAT
 62
     0
100
AcDbLine
 10
0.0
 20
0.0
 30
0.0
 11
0.0
 21
2.5
 31
0.0
  0
LINE
  5
F7
330
F3
100
AcDbEntity
  8
FORMAT
 62
     0
100
AcDbLine
 10
0.0
 20
0.0
 30
0.0
 11
-2.5
 21
0.0
 31
0.0
  0
LINE
  5
F8
330
F3
100
AcDbEntity
  8
FORMAT
 62
     0
100
AcDbLine
 10
0.0
 20
0.0
 30
0.0
 11
0.0
 21
-2.5
 31
0.0
  0
LINE
  5
F9
330
F3
100
AcDbEntity
  8
FORMAT
 62
     0
100
AcDbLine
 10
0.0
 20
0.0
 30
0.0
 11
2.5
 21
0.0
 31
0.0
  0
LINE
  5
FA
330
F3
100
AcDbEntity
  8
FORMAT
 62
     0
100
AcDbLine
 10
0.0
 20
5.0
 30
0.0
 11
0.0
 21
16.5
 31
0.0
  0
LINE
  5
FB
330
F3
100
AcDbEntity
  8
FORMAT
 62
     0
100
AcDbLine
 10
-5.0
 20
0.0
 30
0.0
 11
-16.5
 21
0.0
 31
0.0
  0
LINE
  5
FC
330
F3
100
AcDbEntity
  8
FORMAT
 62
     0
100
AcDbLine
 10
0.0
 20
-5.0
 30
0.0
 11
0.0
 21
-16.5
 31
0.0
  0
LINE
  5
FD
330
F3
100
AcDbEntity
  8
FORMAT
 62
     0
100
AcDbLine
 10
5.0
 20
0.0
 30
0.0
 11
16.5
 21
0.0
 31
0.0
  0
ENDBLK
  5
F5
330
F3
100
AcDbEntity
  8
0
100
AcDbBlockEnd
  0
BLOCK
  5
100
330
FF
100
AcDbEntity
  8
0
100
AcDbBlockBegin
  2
SW_CENTERMARKSYMBOL_8
 70
     0
 10
0.0
 20
0.0
 30
0.0
  3
SW_CENTERMARKSYMBOL_8
  1

  0
LINE
  5
102
330
FF
100
AcDbEntity
  8
FORMAT
 62
     0
100
AcDbLine
 10
0.0
 20
0.0
 30
0.0
 11
0.0
 21
2.5
 31
0.0
  0
LINE
  5
103
330
FF
100
AcDbEntity
  8
FORMAT
 62
     0
100
AcDbLine
 10
0.0
 20
0.0
 30
0.0
 11
-2.5
 21
0.0
 31
0.0
  0
LINE
  5
104
330
FF
100
AcDbEntity
  8
FORMAT
 62
     0
100
AcDbLine
 10
0.0
 20
0.0
 30
0.0
 11
0.0
 21
-2.5
 31
0.0
  0
LINE
  5
105
330
FF
100
AcDbEntity
  8
FORMAT
 62
     0
100
AcDbLine
 10
0.0
 20
0.0
 30
0.0
 11
2.5
 21
0.0
 31
0.0
  0
LINE
  5
106
330
FF
100
AcDbEntity
  8
FORMAT
 62
     0
100
AcDbLine
 10
0.0
 20
5.0
 30
0.0
 11
0.0
 21
16.5
 31
0.0
  0
LINE
  5
107
330
FF
100
AcDbEntity
  8
FORMAT
 62
     0
100
AcDbLine
 10
-5.0
 20
0.0
 30
0.0
 11
-16.5
 21
0.0
 31
0.0
  0
LINE
  5
108
330
FF
100
AcDbEntity
  8
FORMAT
 62
     0
100
AcDbLine
 10
0.0
 20
-5.0
 30
0.0
 11
0.0
 21
-16.5
 31
0.0
  0
LINE
  5
109
330
FF
100
AcDbEntity
  8
FORMAT
 62
     0
100
AcDbLine
 10
5.0
 20
0.0
 30
0.0
 11
16.5
 21
0.0
 31
0.0
  0
ENDBLK
  5
101
330
FF
100
AcDbEntity
  8
0
100
AcDbBlockEnd
  0
BLOCK
  5
10C
330
10B
100
AcDbEntity
  8
0
100
AcDbBlockBegin
  2
SW_CENTERMARKSYMBOL_9
 70
     0
 10
0.0
 20
0.0
 30
0.0
  3
SW_CENTERMARKSYMBOL_9
  1

  0
LINE
  5
10E
330
10B
100
AcDbEntity
  8
FORMAT
 62
     0
100
AcDbLine
 10
0.0
 20
0.0
 30
0.0
 11
0.0
 21
2.5
 31
0.0
  0
LINE
  5
10F
330
10B
100
AcDbEntity
  8
FORMAT
 62
     0
100
AcDbLine
 10
0.0
 20
0.0
 30
0.0
 11
-2.5
 21
0.0
 31
0.0
  0
LINE
  5
110
330
10B
100
AcDbEntity
  8
FORMAT
 62
     0
100
AcDbLine
 10
0.0
 20
0.0
 30
0.0
 11
0.0
 21
-2.5
 31
0.0
  0
LINE
  5
111
330
10B
100
AcDbEntity
  8
FORMAT
 62
     0
100
AcDbLine
 10
0.0
 20
0.0
 30
0.0
 11
2.5
 21
0.0
 31
0.0
  0
LINE
  5
112
330
10B
100
AcDbEntity
  8
FORMAT
 62
     0
100
AcDbLine
 10
0.0
 20
5.0
 30
0.0
 11
0.0
 21
16.5
 31
0.0
  0
LINE
  5
113
330
10B
100
AcDbEntity
  8
FORMAT
 62
     0
100
AcDbLine
 10
-5.0
 20
0.0
 30
0.0
 11
-16.5
 21
0.0
 31
0.0
  0
LINE
  5
114
330
10B
100
AcDbEntity
  8
FORMAT
 62
     0
100
AcDbLine
 10
0.0
 20
-5.0
 30
0.0
 11
0.0
 21
-16.5
 31
0.0
  0
LINE
  5
115
330
10B
100
AcDbEntity
  8
FORMAT
 62
     0
100
AcDbLine
 10
5.0
 20
0.0
 30
0.0
 11
16.5
 21
0.0
 31
0.0
  0
ENDBLK
  5
10D
330
10B
100
AcDbEntity
  8
0
100
AcDbBlockEnd
  0
BLOCK
  5
118
330
117
100
AcDbEntity
  8
0
100
AcDbBlockBegin
  2
SW_CENTERMARKSYMBOL_10
 70
     0
 10
0.0
 20
0.0
 30
0.0
  3
SW_CENTERMARKSYMBOL_10
  1

  0
LINE
  5
11A
330
117
100
AcDbEntity
  8
FORMAT
 62
     0
100
AcDbLine
 10
0.0
 20
0.0
 30
0.0
 11
0.0
 21
2.5
 31
0.0
  0
LINE
  5
11B
330
117
100
AcDbEntity
  8
FORMAT
 62
     0
100
AcDbLine
 10
0.0
 20
0.0
 30
0.0
 11
-2.5
 21
0.0
 31
0.0
  0
LINE
  5
11C
330
117
100
AcDbEntity
  8
FORMAT
 62
     0
100
AcDbLine
 10
0.0
 20
0.0
 30
0.0
 11
0.0
 21
-2.5
 31
0.0
  0
LINE
  5
11D
330
117
100
AcDbEntity
  8
FORMAT
 62
     0
100
AcDbLine
 10
0.0
 20
0.0
 30
0.0
 11
2.5
 21
0.0
 31
0.0
  0
LINE
  5
11E
330
117
100
AcDbEntity
  8
FORMAT
 62
     0
100
AcDbLine
 10
0.0
 20
5.0
 30
0.0
 11
0.0
 21
16.5
 31
0.0
  0
LINE
  5
11F
330
117
100
AcDbEntity
  8
FORMAT
 62
     0
100
AcDbLine
 10
-5.0
 20
0.0
 30
0.0
 11
-16.5
 21
0.0
 31
0.0
  0
LINE
  5
120
330
117
100
AcDbEntity
  8
FORMAT
 62
     0
100
AcDbLine
 10
0.0
 20
-5.0
 30
0.0
 11
0.0
 21
-16.5
 31
0.0
  0
LINE
  5
121
330
117
100
AcDbEntity
  8
FORMAT
 62
     0
100
AcDbLine
 10
5.0
 20
0.0
 30
0.0
 11
16.5
 21
0.0
 31
0.0
  0
ENDBLK
  5
119
330
117
100
AcDbEntity
  8
0
100
AcDbBlockEnd
  0
BLOCK
  5
124
330
123
100
AcDbEntity
  8
0
100
AcDbBlockBegin
  2
SW_CENTERMARKSYMBOL_11
 70
     0
 10
0.0
 20
0.0
 30
0.0
  3
SW_CENTERMARKSYMBOL_11
  1

  0
LINE
  5
126
330
123
100
AcDbEntity
  8
FORMAT
 62
     0
100
AcDbLine
 10
0.0
 20
0.0
 30
0.0
 11
0.0
 21
2.5
 31
0.0
  0
LINE
  5
127
330
123
100
AcDbEntity
  8
FORMAT
 62
     0
100
AcDbLine
 10
0.0
 20
0.0
 30
0.0
 11
-2.5
 21
0.0
 31
0.0
  0
LINE
  5
128
330
123
100
AcDbEntity
  8
FORMAT
 62
     0
100
AcDbLine
 10
0.0
 20
0.0
 30
0.0
 11
0.0
 21
-2.5
 31
0.0
  0
LINE
  5
129
330
123
100
AcDbEntity
  8
FORMAT
 62
     0
100
AcDbLine
 10
0.0
 20
0.0
 30
0.0
 11
2.5
 21
0.0
 31
0.0
  0
LINE
  5
12A
330
123
100
AcDbEntity
  8
FORMAT
 62
     0
100
AcDbLine
 10
0.0
 20
5.0
 30
0.0
 11
0.0
 21
16.5
 31
0.0
  0
LINE
  5
12B
330
123
100
AcDbEntity
  8
FORMAT
 62
     0
100
AcDbLine
 10
-5.0
 20
0.0
 30
0.0
 11
-16.5
 21
0.0
 31
0.0
  0
LINE
  5
12C
330
123
100
AcDbEntity
  8
FORMAT
 62
     0
100
AcDbLine
 10
0.0
 20
-5.0
 30
0.0
 11
0.0
 21
-16.5
 31
0.0
  0
LINE
  5
12D
330
123
100
AcDbEntity
  8
FORMAT
 62
     0
100
AcDbLine
 10
5.0
 20
0.0
 30
0.0
 11
16.5
 21
0.0
 31
0.0
  0
ENDBLK
  5
125
330
123
100
AcDbEntity
  8
0
100
AcDbBlockEnd
  0
BLOCK
  5
130
330
12F
100
AcDbEntity
  8
0
100
AcDbBlockBegin
  2
SW_CENTERMARKSYMBOL_12
 70
     0
 10
0.0
 20
0.0
 30
0.0
  3
SW_CENTERMARKSYMBOL_12
  1

  0
LINE
  5
132
330
12F
100
AcDbEntity
  8
FORMAT
 62
     0
100
AcDbLine
 10
0.0
 20
0.0
 30
0.0
 11
0.0
 21
2.5
 31
0.0
  0
LINE
  5
133
330
12F
100
AcDbEntity
  8
FORMAT
 62
     0
100
AcDbLine
 10
0.0
 20
0.0
 30
0.0
 11
-2.5
 21
0.0
 31
0.0
  0
LINE
  5
134
330
12F
100
AcDbEntity
  8
FORMAT
 62
     0
100
AcDbLine
 10
0.0
 20
0.0
 30
0.0
 11
0.0
 21
-2.5
 31
0.0
  0
LINE
  5
135
330
12F
100
AcDbEntity
  8
FORMAT
 62
     0
100
AcDbLine
 10
0.0
 20
0.0
 30
0.0
 11
2.5
 21
0.0
 31
0.0
  0
LINE
  5
136
330
12F
100
AcDbEntity
  8
FORMAT
 62
     0
100
AcDbLine
 10
0.0
 20
5.0
 30
0.0
 11
0.0
 21
16.5
 31
0.0
  0
LINE
  5
137
330
12F
100
AcDbEntity
  8
FORMAT
 62
     0
100
AcDbLine
 10
-5.0
 20
0.0
 30
0.0
 11
-16.5
 21
0.0
 31
0.0
  0
LINE
  5
138
330
12F
100
AcDbEntity
  8
FORMAT
 62
     0
100
AcDbLine
 10
0.0
 20
-5.0
 30
0.0
 11
0.0
 21
-16.5
 31
0.0
  0
LINE
  5
139
330
12F
100
AcDbEntity
  8
FORMAT
 62
     0
100
AcDbLine
 10
5.0
 20
0.0
 30
0.0
 11
16.5
 21
0.0
 31
0.0
  0
ENDBLK
  5
131
330
12F
100
AcDbEntity
  8
0
100
AcDbBlockEnd
  0
ENDSEC
  0
SECTION
  2
ENTITIES
  0
CIRCLE
  5
83
330
1F
100
AcDbEntity
  8
0
  6
Continuous
 62
     7
370
    25
100
AcDbCircle
 10
-36.794547121
 20
218.1909958732
 30
0.0
 40
14.00000000000001
  0
CIRCLE
  5
84
330
1F
100
AcDbEntity
  8
0
  6
Continuous
 62
     7
370
    25
100
AcDbCircle
 10
-36.794547121
 20
13.1909958732
 30
0.0
 40
14.00000000000001
  0
CIRCLE
  5
85
330
1F
100
AcDbEntity
  8
0
  6
Continuous
 62
     7
370
    25
100
AcDbCircle
 10
140.7406606548
 20
-89.3090041268
 30
0.0
 40
14.00000000000003
  0
CIRCLE
  5
86
330
1F
100
AcDbEntity
  8
0
  6
Continuous
 62
     7
370
    25
100
AcDbCircle
 10
345.7406606549
 20
115.6909958732
 30
0.0
 40
14.00000000000006
  0
CIRCLE
  5
87
330
1F
100
AcDbEntity
  8
0
  6
Continuous
 62
     7
370
    25
100
AcDbCircle
 10
243.2406606549
 20
293.226203649
 30
0.0
 40
14.0
  0
CIRCLE
  5
88
330
1F
100
AcDbEntity
  8
0
  6
Continuous
 62
     7
370
    25
100
AcDbCircle
 10
140.7406606549
 20
320.6909958732
 30
0.0
 40
14.0
  0
CIRCLE
  5
89
330
1F
100
AcDbEntity
  8
0
  6
Continuous
 62
     7
370
    25
100
AcDbCircle
 10
140.7406606549
 20
115.6909958732
 30
0.0
 40
238.0
  0
CIRCLE
  5
8A
330
1F
100
AcDbEntity
  8
0
  6
Continuous
 62
     7
370
    25
100
AcDbCircle
 10
140.7406606549
 20
115.6909958732
 30
0.0
 40
170.0000000000001
  0
CIRCLE
  5
8B
330
1F
100
AcDbEntity
  8
0
  6
Continuous
 62
     7
370
    25
100
AcDbCircle
 10
318.2758684307
 20
13.1909958732
 30
0.0
 40
14.0
  0
CIRCLE
  5
8C
330
1F
100
AcDbEntity
  8
0
  6
Continuous
 62
     7
370
    25
100
AcDbCircle
 10
318.2758684307
 20
218.1909958732
 30
0.0
 40
14.0
  0
CIRCLE
  5
8D
330
1F
100
AcDbEntity
  8
0
  6
Continuous
 62
     7
370
    25
100
AcDbCircle
 10
243.2406606548
 20
-61.8442119026
 30
0.0
 40
14.00000000000003
  0
CIRCLE
  5
8E
330
1F
100
AcDbEntity
  8
0
  6
Continuous
 62
     7
370
    25
100
AcDbCircle
 10
38.2406606548
 20
-61.8442119026
 30
0.0
 40
14.00000000000001
  0
CIRCLE
  5
8F
330
1F
100
AcDbEntity
  8
0
  6
Continuous
 62
     7
370
    25
100
AcDbCircle
 10
-64.2593393452
 20
115.6909958732
 30
0.0
 40
14.00000000000001
  0
CIRCLE
  5
90
330
1F
100
AcDbEntity
  8
0
  6
Continuous
 62
     7
370
    25
100
AcDbCircle
 10
38.2406606549
 20
293.226203649
 30
0.0
 40
14.0
  0
CIRCLE
  5
91
330
1F
100
AcDbEntity
  8
0
  6
Continuous
 62
     7
370
    25
100
AcDbCircle
 10
318.2758684307
 20
218.1909958732
 30
0.0
 40
13.0
  0
CIRCLE
  5
92
330
1F
100
AcDbEntity
  8
0
  6
Continuous
 62
     7
370
    25
100
AcDbCircle
 10
318.2758684307
 20
13.1909958732
 30
0.0
 40
13.0
  0
CIRCLE
  5
93
330
1F
100
AcDbEntity
  8
0
  6
Continuous
 62
     7
370
    25
100
AcDbCircle
 10
140.7406606549
 20
115.6909958732
 30
0.0
 40
169.0000000000001
  0
CIRCLE
  5
94
330
1F
100
AcDbEntity
  8
0
  6
Continuous
 62
     7
370
    25
100
AcDbCircle
 10
140.7406606549
 20
115.6909958732
 30
0.0
 40
239.0
  0
CIRCLE
  5
95
330
1F
100
AcDbEntity
  8
0
  6
Continuous
 62
     7
370
    25
100
AcDbCircle
 10
140.7406606549
 20
320.6909958732
 30
0.0
 40
13.0
  0
CIRCLE
  5
96
330
1F
100
AcDbEntity
  8
0
  6
Continuous
 62
     7
370
    25
100
AcDbCircle
 10
243.2406606549
 20
293.226203649
 30
0.0
 40
13.0
  0
CIRCLE
  5
97
330
1F
100
AcDbEntity
  8
0
  6
Continuous
 62
     7
370
    25
100
AcDbCircle
 10
345.7406606549
 20
115.6909958732
 30
0.0
 40
13.0
  0
CIRCLE
  5
98
330
1F
100
AcDbEntity
  8
0
  6
Continuous
 62
     7
370
    25
100
AcDbCircle
 10
38.2406606549
 20
293.226203649
 30
0.0
 40
13.0
  0
CIRCLE
  5
99
330
1F
100
AcDbEntity
  8
0
  6
Continuous
 62
     7
370
    25
100
AcDbCircle
 10
-64.2593393452
 20
115.6909958732
 30
0.0
 40
13.00000000000001
  0
CIRCLE
  5
9A
330
1F
100
AcDbEntity
  8
0
  6
Continuous
 62
     7
370
    25
100
AcDbCircle
 10
38.2406606548
 20
-61.8442119026
 30
0.0
 40
13.00000000000001
  0
CIRCLE
  5
9B
330
1F
100
AcDbEntity
  8
0
  6
Continuous
 62
     7
370
    25
100
AcDbCircle
 10
243.2406606548
 20
-61.8442119026
 30
0.0
 40
12.99999999999997
  0
CIRCLE
  5
9C
330
1F
100
AcDbEntity
  8
0
  6
Continuous
 62
     7
370
    25
100
AcDbCircle
 10
140.7406606548
 20
-89.3090041268
 30
0.0
 40
13.00000000000003
  0
CIRCLE
  5
9D
330
1F
100
AcDbEntity
  8
0
  6
Continuous
 62
     7
370
    25
100
AcDbCircle
 10
-36.794547121
 20
13.1909958732
 30
0.0
 40
13.00000000000001
  0
CIRCLE
  5
9E
330
1F
100
AcDbEntity
  8
0
  6
Continuous
 62
     7
370
    25
100
AcDbCircle
 10
-36.794547121
 20
218.1909958732
 30
0.0
 40
13.00000000000001
  0
INSERT
  5
AA
330
1F
100
AcDbEntity
  8
FORMAT
 62
     7
100
AcDbBlockReference
  2
SW_CENTERMARKSYMBOL_0
 10
140.7406606549
 20
115.6909958732
 30
0.0
  0
INSERT
  5
B6
330
1F
100
AcDbEntity
  8
FORMAT
 62
     7
100
AcDbBlockReference
  2
SW_CENTERMARKSYMBOL_1
 10
140.7406606549
 20
320.6909958732
 30
0.0
  0
INSERT
  5
C2
330
1F
100
AcDbEntity
  8
FORMAT
 62
     7
100
AcDbBlockReference
  2
SW_CENTERMARKSYMBOL_2
 10
243.2406606549
 20
293.226203649
 30
0.0
  0
INSERT
  5
CE
330
1F
100
AcDbEntity
  8
FORMAT
 62
     7
100
AcDbBlockReference
  2
SW_CENTERMARKSYMBOL_3
 10
318.2758684307
 20
218.1909958732
 30
0.0
  0
INSERT
  5
DA
330
1F
100
AcDbEntity
  8
FORMAT
 62
     7
100
AcDbBlockReference
  2
SW_CENTERMARKSYMBOL_4
 10
345.7406606549
 20
115.6909958732
 30
0.0
  0
INSERT
  5
E6
330
1F
100
AcDbEntity
  8
FORMAT
 62
     7
100
AcDbBlockReference
  2
SW_CENTERMARKSYMBOL_5
 10
38.2406606548
 20
-61.8442119026
 30
0.0
  0
INSERT
  5
F2
330
1F
100
AcDbEntity
  8
FORMAT
 62
     7
100
AcDbBlockReference
  2
SW_CENTERMARKSYMBOL_6
 10
140.7406606548
 20
-89.3090041268
 30
0.0
  0
INSERT
  5
FE
330
1F
100
AcDbEntity
  8
FORMAT
 62
     7
100
AcDbBlockReference
  2
SW_CENTERMARKSYMBOL_7
 10
243.2406606548
 20
-61.8442119026
 30
0.0
  0
INSERT
  5
10A
330
1F
100
AcDbEntity
  8
FORMAT
 62
     7
100
AcDbBlockReference
  2
SW_CENTERMARKSYMBOL_8
 10
38.2406606549
 20
293.226203649
 30
0.0
  0
INSERT
  5
116
330
1F
100
AcDbEntity
  8
FORMAT
 62
     7
100
AcDbBlockReference
  2
SW_CENTERMARKSYMBOL_9
 10
-36.794547121
 20
218.1909958732
 30
0.0
  0
INSERT
  5
122
330
1F
100
AcDbEntity
  8
FORMAT
 62
     7
100
AcDbBlockReference
  2
SW_CENTERMARKSYMBOL_10
 10
-64.2593393452
 20
115.6909958732
 30
0.0
  0
INSERT
  5
12E
330
1F
100
AcDbEntity
  8
FORMAT
 62
     7
100
AcDbBlockReference
  2
SW_CENTERMARKSYMBOL_11
 10
-36.794547121
 20
13.1909958732
 30
0.0
  0
INSERT
  5
13A
330
1F
100
AcDbEntity
  8
FORMAT
 62
     7
100
AcDbBlockReference
  2
SW_CENTERMARKSYMBOL_12
 10
318.2758684307
 20
13.1909958732
 30
0.0
  0
LINE
  5
13B
330
1F
100
AcDbEntity
  8
0
  6
Continuous
 62
     7
370
    25
100
AcDbLine
 10
-230.5850436883
 20
354.6909958732
 30
0.0
 11
-262.5850436883
 21
354.6909958732
 31
0.0
  0
LINE
  5
13C
330
1F
100
AcDbEntity
  8
0
  6
Continuous
 62
     7
370
    25
100
AcDbLine
 10
-262.5850436883
 20
-123.3090041268
 30
0.0
 11
-230.5850436883
 21
-123.3090041268
 31
0.0
  0
ARC
  5
13D
330
1F
100
AcDbEntity
  8
0
  6
Continuous
 62
     7
370
    25
100
AcDbCircle
 10
-230.5850436883
 20
-122.3090041268
 30
0.0
 40
1.0
100
AcDbArc
 50
270.0
 51
0.0
  0
ARC
  5
13E
330
1F
100
AcDbEntity
  8
0
  6
Continuous
 62
     7
370
    25
100
AcDbCircle
 10
-230.5850436883
 20
353.6909958732
 30
0.0
 40
1.0
100
AcDbArc
 50
0.0
 51
90.0
  0
ARC
  5
13F
330
1F
100
AcDbEntity
  8
0
  6
Continuous
 62
     7
370
    25
100
AcDbCircle
 10
-262.5850436883
 20
-122.3090041268
 30
0.0
 40
1.0
100
AcDbArc
 50
180.0
 51
270.0
  0
ARC
  5
140
330
1F
100
AcDbEntity
  8
0
  6
Continuous
 62
     7
370
    25
100
AcDbCircle
 10
-262.5850436883
 20
353.6909958732
 30
0.0
 40
1.0
100
AcDbArc
 50
90.0
 51
180.0
  0
LINE
  5
141
330
1F
100
AcDbEntity
  8
0
  6
Continuous
 62
     7
370
    25
100
AcDbLine
 10
-229.5850436883
 20
115.6909958732
 30
0.0
 11
-229.5850436883
 21
-122.3090041268
 31
0.0
  0
LINE
  5
142
330
1F
100
AcDbEntity
  8
0
  6
Continuous
 62
     7
370
    25
100
AcDbLine
 10
-229.5850436883
 20
353.6909958732
 30
0.0
 11
-229.5850436883
 21
115.6909958732
 31
0.0
  0
LINE
  5
143
330
1F
100
AcDbEntity
  8
0
  6
Continuous
 62
     7
370
    25
100
AcDbLine
 10
-263.5850436883
 20
115.6909958732
 30
0.0
 11
-263.5850436883
 21
353.6909958732
 31
0.0
  0
LINE
  5
144
330
1F
100
AcDbEntity
  8
0
  6
Continuous
 62
     7
370
    25
100
AcDbLine
 10
-263.5850436883
 20
-122.3090041268
 30
0.0
 11
-263.5850436883
 21
115.6909958732
 31
0.0
  0
LINE
  5
145
330
1F
100
AcDbEntity
  8
0
  6
Continuous
 62
     1
370
    25
100
AcDbLine
 10
-262.5850436883
 20
115.6909958732
 30
0.0
 11
-262.5850436883
 21
-123.3090041268
 31
0.0
  0
LINE
  5
146
330
1F
100
AcDbEntity
  8
0
  6
Continuous
 62
     1
370
    25
100
AcDbLine
 10
-262.5850436883
 20
354.6909958732
 30
0.0
 11
-262.5850436883
 21
115.6909958732
 31
0.0
  0
LINE
  5
147
330
1F
100
AcDbEntity
  8
0
  6
Continuous
 62
     1
370
    25
100
AcDbLine
 10
-230.5850436883
 20
115.6909958732
 30
0.0
 11
-230.5850436883
 21
354.6909958732
 31
0.0
  0
LINE
  5
148
330
1F
100
AcDbEntity
  8
0
  6
Continuous
 62
     1
370
    25
100
AcDbLine
 10
-230.5850436883
 20
-123.3090041268
 30
0.0
 11
-230.5850436883
 21
115.6909958732
 31
0.0
  0
LINE
  5
149
330
1F
100
AcDbEntity
  8
0
  6
Continuous
 62
     7
370
    25
100
AcDbLine
 10
622.8720401257
 20
-123.3090041268
 30
0.0
 11
654.8720401257
 21
-123.3090041268
 31
0.0
  0
LINE
  5
14A
330
1F
100
AcDbEntity
  8
0
  6
Continuous
 62
     7
370
    25
100
AcDbLine
 10
654.8720401257
 20
354.6909958732
 30
0.0
 11
622.8720401257
 21
354.6909958732
 31
0.0
  0
ARC
  5
14B
330
1F
100
AcDbEntity
  8
0
  6
Continuous
 62
     7
370
    25
100
AcDbCircle
 10
622.8720401257
 20
353.6909958732
 30
0.0
 40
1.0
100
AcDbArc
 50
90.0
 51
180.0
  0
ARC
  5
14C
330
1F
100
AcDbEntity
  8
0
  6
Continuous
 62
     7
370
    25
100
AcDbCircle
 10
622.8720401257
 20
-122.3090041268
 30
0.0
 40
1.0
100
AcDbArc
 50
180.0
 51
270.0
  0
ARC
  5
14D
330
1F
100
AcDbEntity
  8
0
  6
Continuous
 62
     7
370
    25
100
AcDbCircle
 10
654.8720401257
 20
353.6909958732
 30
0.0
 40
1.0
100
AcDbArc
 50
0.0
 51
90.0
  0
ARC
  5
14E
330
1F
100
AcDbEntity
  8
0
  6
Continuous
 62
     7
370
    25
100
AcDbCircle
 10
654.8720401257
 20
-122.3090041268
 30
0.0
 40
1.0
100
AcDbArc
 50
270.0
 51
0.0
  0
LINE
  5
14F
330
1F
100
AcDbEntity
  8
0
  6
Continuous
 62
     7
370
    25
100
AcDbLine
 10
621.8720401257
 20
-122.3090041268
 30
0.0
 11
621.8720401257
 21
353.6909958732
 31
0.0
  0
LINE
  5
150
330
1F
100
AcDbEntity
  8
0
  6
Continuous
 62
     7
370
    25
100
AcDbLine
 10
655.8720401257
 20
353.6909958732
 30
0.0
 11
655.8720401257
 21
-122.3090041268
 31
0.0
  0
LINE
  5
151
330
1F
100
AcDbEntity
  8
0
  6
Continuous
 62
     1
370
    25
100
AcDbLine
 10
654.8720401257
 20
-123.3090041268
 30
0.0
 11
654.8720401257
 21
354.6909958732
 31
0.0
  0
LINE
  5
152
330
1F
100
AcDbEntity
  8
0
  6
Continuous
 62
     1
370
    25
100
AcDbLine
 10
622.8720401257
 20
354.6909958732
 30
0.0
 11
622.8720401257
 21
-123.3090041268
 31
0.0
  0
LINE
  5
153
330
1F
100
AcDbEntity
  8
0
  6
Continuous
 62
     7
370
    25
100
AcDbLine
 10
379.7406606549
 20
480.909043236
 30
0.0
 11
379.7406606549
 21
512.909043236
 31
0.0
  0
LINE
  5
154
330
1F
100
AcDbEntity
  8
0
  6
Continuous
 62
     7
370
    25
100
AcDbLine
 10
-98.2593393451
 20
512.909043236
 30
0.0
 11
-98.2593393451
 21
480.909043236
 31
0.0
  0
ARC
  5
155
330
1F
100
AcDbEntity
  8
0
  6
Continuous
 62
     7
370
    25
100
AcDbCircle
 10
-97.2593393451
 20
480.909043236
 30
0.0
 40
1.0
100
AcDbArc
 50
180.0
 51
270.0
  0
ARC
  5
156
330
1F
100
AcDbEntity
  8
0
  6
Continuous
 62
     7
370
    25
100
AcDbCircle
 10
378.7406606549
 20
480.909043236
 30
0.0
 40
1.0
100
AcDbArc
 50
270.0
 51
0.0
  0
ARC
  5
157
330
1F
100
AcDbEntity
  8
0
  6
Continuous
 62
     7
370
    25
100
AcDbCircle
 10
-97.2593393451
 20
512.909043236
 30
0.0
 40
1.0
100
AcDbArc
 50
90.0
 51
180.0
  0
ARC
  5
158
330
1F
100
AcDbEntity
  8
0
  6
Continuous
 62
     7
370
    25
100
AcDbCircle
 10
378.7406606549
 20
512.909043236
 30
0.0
 40
1.0
100
AcDbArc
 50
0.0
 51
90.0
  0
LINE
  5
159
330
1F
100
AcDbEntity
  8
0
  6
Continuous
 62
     7
370
    25
100
AcDbLine
 10
378.7406606549
 20
479.909043236
 30
0.0
 11
-97.2593393449
 21
479.909043236
 31
0.0
  0
LINE
  5
15A
330
1F
100
AcDbEntity
  8
0
  6
Continuous
 62
     7
370
    25
100
AcDbLine
 10
-97.2593393449
 20
513.909043236
 30
0.0
 11
378.7406606549
 21
513.909043236
 31
0.0
  0
LINE
  5
15B
330
1F
100
AcDbEntity
  8
0
  6
Continuous
 62
     1
370
    25
100
AcDbLine
 10
379.7406606549
 20
512.909043236
 30
0.0
 11
-98.2593393451
 21
512.909043236
 31
0.0
  0
LINE
  5
15C
330
1F
100
AcDbEntity
  8
0
  6
Continuous
 62
     1
370
    25
100
AcDbLine
 10
-98.2593393451
 20
480.909043236
 30
0.0
 11
379.7406606549
 21
480.909043236
 31
0.0
  0
LINE
  5
15D
330
1F
100
AcDbEntity
  8
0
  6
Continuous
 62
     7
370
    25
100
AcDbLine
 10
-98.2593393451
 20
-356.2853727442
 30
0.0
 11
-98.2593393451
 21
-388.2853727442
 31
0.0
  0
LINE
  5
15E
330
1F
100
AcDbEntity
  8
0
  6
Continuous
 62
     7
370
    25
100
AcDbLine
 10
379.7406606549
 20
-388.2853727442
 30
0.0
 11
379.7406606549
 21
-356.2853727442
 31
0.0
  0
ARC
  5
15F
330
1F
100
AcDbEntity
  8
0
  6
Continuous
 62
     7
370
    25
100
AcDbCircle
 10
378.7406606549
 20
-356.2853727442
 30
0.0
 40
1.0
100
AcDbArc
 50
0.0
 51
90.0
  0
ARC
  5
160
330
1F
100
AcDbEntity
  8
0
  6
Continuous
 62
     7
370
    25
100
AcDbCircle
 10
-97.2593393451
 20
-356.2853727442
 30
0.0
 40
1.0
100
AcDbArc
 50
90.0
 51
180.0
  0
ARC
  5
161
330
1F
100
AcDbEntity
  8
0
  6
Continuous
 62
     7
370
    25
100
AcDbCircle
 10
378.7406606549
 20
-388.2853727442
 30
0.0
 40
1.0
100
AcDbArc
 50
270.0
 51
0.0
  0
ARC
  5
162
330
1F
100
AcDbEntity
  8
0
  6
Continuous
 62
     7
370
    25
100
AcDbCircle
 10
-97.2593393451
 20
-388.2853727442
 30
0.0
 40
1.0
100
AcDbArc
 50
180.0
 51
270.0
  0
LINE
  5
163
330
1F
100
AcDbEntity
  8
0
  6
Continuous
 62
     7
370
    25
100
AcDbLine
 10
-97.2593393449
 20
-355.2853727442
 30
0.0
 11
378.7406606549
 21
-355.2853727442
 31
0.0
  0
LINE
  5
164
330
1F
100
AcDbEntity
  8
0
  6
Continuous
 62
     7
370
    25
100
AcDbLine
 10
378.7406606549
 20
-389.2853727442
 30
0.0
 11
-97.2593393449
 21
-389.2853727442
 31
0.0
  0
LINE
  5
165
330
1F
100
AcDbEntity
  8
0
  6
Continuous
 62
     1
370
    25
100
AcDbLine
 10
-98.2593393451
 20
-388.2853727442
 30
0.0
 11
379.7406606549
 21
-388.2853727442
 31
0.0
  0
LINE
  5
166
330
1F
100
AcDbEntity
  8
0
  6
Continuous
 62
     1
370
    25
100
AcDbLine
 10
379.7406606549
 20
-356.2853727442
 30
0.0
 11
-98.2593393451
 21
-356.2853727442
 31
0.0
  0
SPLINE
  5
167
330
1F
100
AcDbEntity
  8
0
  6
Continuous
 62
     7
370
    25
100
AcDbSpline
210
0.0
220
0.0
230
1.0
 70
     8
 71
     3
 72
    81
 73
    77
 74
     0
 42
0.00000001
 43
0.00000001
 40
0.0
 40
0.0
 40
0.0
 40
0.0
 40
0.0000800978873617
 40
0.0139048181770919
 40
0.0277354661913732
 40
0.0415718717776662
 40
0.0554136629213609
 40
0.0692603258650238
 40
0.0831112623292125
 40
0.0969658389671626
 40
0.1108234265927264
 40
0.12468342868472
 40
0.1385453000176259
 40
0.1524085570142394
 40
0.1662727816824962
 40
0.1801376209410336
 40
0.1940027828988593
 40
0.2078680025859544
 40
0.2217330693093943
 40
0.2355978518267003
 40
0.2494622532534444
 40
0.2633262054065088
 40
0.2771896637902059
 40
0.2910526032460013
 40
0.3049150142430739
 40
0.3187768997603258
 40
0.3326382726972008
 40
0.3464991537466462
 40
0.3603595696648714
 40
0.3742195518771779
 40
0.3880791353652491
 40
0.4019383577879179
 40
0.4157972587940468
 40
0.4296558794921438
 40
0.4435142620468718
 40
0.4573724493772063
 40
0.4712304849350645
 40
0.4850884125464295
 40
0.4989462762996711
 40
0.5128041204677815
 40
0.5266619861571197
 40
0.5405199063446019
 40
0.5543779255743968
 40
0.5682360883992165
 40
0.5820944393139609
 40
0.5959530226628172
 40
0.6098118825059846
 40
0.6236710624316296
 40
0.6375306052963255
 40
0.6513905528742536
 40
0.6652509453916636
 40
0.6791118209187651
 40
0.6929732145859147
 40
0.7068351575851357
 40
0.7206976759113747
 40
0.7345607887909984
 40
0.7484245067381935
 40
0.7622888291739448
 40
0.776153741538485
 40
0.7900192118283311
 40
0.8038851864962792
 40
0.8177515856707352
 40
0.8316182976852982
 40
0.8454851729673114
 40
0.8593519429131173
 40
0.8732183430713171
 40
0.8870840496484037
 40
0.9009486736564248
 40
0.9148117579901401
 40
0.9286727782078968
 40
0.9425311487385812
 40
0.9563862364273823
 40
0.9702373832809079
 40
0.9840839398204925
 40
0.9979253094456911
 40
1.0
 40
1.0
 40
1.0
 40
1.0
 10
735.8852872631767
 20
-173.4735332825407
 30
0.0
 10
735.875147782989
 20
-173.4721568406136
 30
0.0
 10
734.1149561841265
 20
-173.2332095305521
 30
0.0
 10
730.5005393746073
 20
-173.0196545639994
 30
0.0
 10
725.041216052288
 20
-172.8568043457258
 30
0.0
 10
719.4681407871752
 20
-173.0185361695924
 30
0.0
 10
713.8065699952328
 20
-173.4597658503202
 30
0.0
 10
708.0593065312493
 20
-174.1920466896356
 30
0.0
 10
702.2353482637571
 20
-175.2112220802296
 30
0.0
 10
696.3421782571976
 20
-176.5168224371689
 30
0.0
 10
690.3878045316571
 20
-178.1068700493868
 30
0.0
 10
684.3801888734293
 20
-179.979280319248
 30
0.0
 10
678.3273787553268
 20
-182.1314968244268
 30
0.0
 10
672.23745383012
 20
-184.5606008377063
 30
0.0
 10
666.1185247266832
 20
-187.2632938977821
 30
0.0
 10
659.9787198509532
 20
-190.2359141330676
 30
0.0
 10
653.8261810879371
 20
-193.4744407867827
 30
0.0
 10
647.6690541995181
 20
-196.9745023930824
 30
0.0
 10
641.5154749937648
 20
-200.7313870417046
 30
0.0
 10
635.3735569939777
 20
-204.7400533370394
 30
0.0
 10
629.2513841530827
 20
-208.9951384028682
 30
0.0
 10
623.1570080728038
 20
-213.490961857688
 30
0.0
 10
617.0984392395826
 20
-218.2215331776645
 30
0.0
 10
611.0836380348705
 20
-223.1805592654706
 30
0.0
 10
605.1205055440961
 20
-228.3614522894706
 30
0.0
 10
599.2168741985031
 20
-233.7573378417452
 30
0.0
 10
593.3804982902379
 20
-239.3610634475163
 30
0.0
 10
587.6190444030769
 20
-245.1652074457967
 30
0.0
 10
581.9400818007982
 20
-251.1620882507712
 30
0.0
 10
576.3510728133473
 20
-257.3437739953511
 30
0.0
 10
570.8593632582865
 20
-263.7020925521634
 30
0.0
 10
565.4721729320476
 20
-270.2286419225757
 30
0.0
 10
560.1965862024948
 20
-276.9148009808911
 30
0.0
 10
555.0395427314409
 20
-283.7517405583238
 30
0.0
 10
550.0078283531266
 20
-290.7304348495013
 30
0.0
 10
545.1080661323184
 20
-297.8416731229278
 30
0.0
 10
540.3467076236026
 20
-305.0760717158427
 30
0.0
 10
535.730024351644
 20
-312.4240862932044
 30
0.0
 10
531.2640995306132
 20
-319.8760243499469
 30
0.0
 10
526.9548203812016
 20
-327.4220573370223
 30
0.0
 10
522.8078711262884
 20
-335.0522320415598
 30
0.0
 10
518.828724160168
 20
-342.7564857222164
 30
0.0
 10
515.0226325741354
 20
-350.5246600434783
 30
0.0
 10
511.3946227000643
 20
-358.3465160889488
 30
0.0
 10
507.9494887307147
 20
-366.211745752609
 30
0.0
 10
504.6917865276292
 20
-374.1099853276051
 30
0.0
 10
501.6258277745673
 20
-382.0308291557962
 30
0.0
 10
498.7556744860307
 20
-389.9638433113398
 30
0.0
 10
496.0851338789622
 20
-397.8985792908921
 30
0.0
 10
493.6177536142821
 20
-405.8245876815653
 30
0.0
 10
491.3568174131109
 20
-413.7314317762599
 30
0.0
 10
489.3053410502639
 20
-421.6087011042493
 30
0.0
 10
487.4660687247185
 20
-429.4460248430718
 30
0.0
 10
485.841469803097
 20
-437.2330850758647
 30
0.0
 10
484.4337359275673
 20
-444.9596298564852
 30
0.0
 10
483.2447784737218
 20
-452.6154860432328
 30
0.0
 10
482.2762263367021
 20
-460.1905718611357
 30
0.0
 10
481.5294240149506
 20
-467.6749091529311
 30
0.0
 10
481.0054299500075
 20
-475.0586352811464
 30
0.0
 10
480.7050150689149
 20
-482.3320146475545
 30
0.0
 10
480.6286614586853
 20
-489.4854498084076
 30
0.0
 10
480.7765610976851
 20
-496.5094921654239
 30
0.0
 10
481.1486145139702
 20
-503.3948522815083
 30
0.0
 10
481.7444283095685
 20
-510.1323976566748
 30
0.0
 10
482.5633120254319
 20
-516.7131730314547
 30
0.0
 10
483.6042764377299
 20
-523.1284090873037
 30
0.0
 10
484.8660294156575
 20
-529.3695478335326
 30
0.0
 10
486.3469859862792
 20
-535.4282262837633
 30
0.0
 10
488.045212273242
 20
-541.2963523469275
 30
0.0
 10
489.958617715368
 20
-546.9658756546244
 30
0.0
 10
492.0842208321222
 20
-552.4297033493474
 30
0.0
 10
494.4208736834681
 20
-557.6783522592103
 30
0.0
 10
496.9590884003555
 20
-562.7125169356862
 30
0.0
 10
499.718988584357
 20
-567.496274256646
 30
0.0
 10
501.7902715996557
 20
-570.8188027647424
 30
0.0
 10
502.9983231923263
 20
-572.4726224506509
 30
0.0
 10
503.1557951546187
 20
-572.6882011832132
 30
0.0
  0
LINE
  5
168
330
1F
100
AcDbEntity
  8
0
  6
Continuous
 62
     7
370
    25
100
AcDbLine
 10
792.0723029387
 20
-197.2555825212
 30
0.0
 11
769.4448859407
 21
-184.193052732
 31
0.0
  0
LINE
  5
169
330
1F
100
AcDbEntity
  8
0
  6
Continuous
 62
     7
370
    25
100
AcDbLine
 10
530.4643088407
 20
-598.16440895
 30
0.0
 11
553.0917258387
 21
-611.2269387392
 31
0.0
  0
SPLINE
  5
16A
330
1F
100
AcDbEntity
  8
0
  6
Continuous
 62
     7
370
    25
100
AcDbSpline
210
0.0
220
0.0
230
1.0
 70
     8
 71
     3
 72
    66
 73
    62
 74
     0
 42
0.00000001
 43
0.00000001
 40
0.0
 40
0.0
 40
0.0
 40
0.0
 40
0.0033082873930959
 40
0.0206922842381892
 40
0.0380836308800789
 40
0.0554819440236512
 40
0.0728866344648405
 40
0.090296981239106
 40
0.1077121978840125
 40
0.1251314866562671
 40
0.1425540792579331
 40
0.1599792646119376
 40
0.1774064054287368
 40
0.1948349458398929
 40
0.212264412428937
 40
0.2296944107545453
 40
0.2471246117810865
 40
0.2645546933829974
 40
0.2819844728063896
 40
0.2994138132801283
 40
0.3168426166315602
 40
0.3342708166809779
 40
0.3516983734676621
 40
0.3691252682970672
 40
0.3865514995569903
 40
0.4039770792284839
 40
0.4214020300085482
 40
0.438826382961303
 40
0.4562501756187737
 40
0.4736734504597643
 40
0.4910962537033611
 40
0.5085186343621113
 40
0.5259406435076974
 40
0.5433623337091638
 40
0.5607837586099382
 40
0.5782049726152568
 40
0.5956260306660102
 40
0.6130469880786519
 40
0.6304679004336036
 40
0.6478888234967153
 40
0.6653097972306548
 40
0.6827308749274446
 40
0.7001521125994539
 40
0.7175735662199488
 40
0.7349952916206027
 40
0.752417344344503
 40
0.7698397794373099
 40
0.7872626511565931
 40
0.8046860125760552
 40
0.8221099150569783
 40
0.8395344075539443
 40
0.8569595357158116
 40
0.8743853407356785
 40
0.8918118578957266
 40
0.9092391147440811
 40
0.9266671288322457
 40
0.9440959049335035
 40
0.9615254316566999
 40
0.978955677367968
 40
0.9954692522274871
 40
0.9999999999999999
 40
0.9999999999999999
 40
0.9999999999999999
 40
0.9999999999999999
 10
589.0512101458492
 20
-622.1515339998064
 30
0.0
 10
589.3884199724599
 20
-622.1864305598817
 30
0.0
 10
591.4975600655187
 20
-622.4046974315937
 30
0.0
 10
595.4853096521138
 20
-622.525382031593
 30
0.0
 10
601.0119698342112
 20
-622.497475391651
 30
0.0
 10
606.6434395024224
 20
-622.1547725242431
 30
0.0
 10
612.3597617380855
 20
-621.5302254611836
 30
0.0
 10
618.1565985247582
 20
-620.6158659603276
 30
0.0
 10
624.0252678365646
 20
-619.4152220196465
 30
0.0
 10
629.9581236670022
 20
-617.9292616852523
 30
0.0
 10
635.9471392178538
 20
-616.1601538599817
 30
0.0
 10
641.9843090647887
 20
-614.1102501204781
 30
0.0
 10
648.061560581847
 20
-611.7823462034173
 30
0.0
 10
654.1707941181818
 20
-609.1796000036727
 30
0.0
 10
660.303886424184
 20
-606.3055417592292
 30
0.0
 10
666.4527014221059
 20
-603.1640604189696
 30
0.0
 10
672.6090917039376
 20
-599.7594006226589
 30
0.0
 10
678.764916864409
 20
-596.0961503311781
 30
0.0
 10
684.9120524434952
 20
-592.1792323049066
 30
0.0
 10
691.0424047738267
 20
-588.0138911373774
 30
0.0
 10
697.147909381769
 20
-583.6056915954019
 30
0.0
 10
703.2205396672846
 20
-578.9605113084133
 30
0.0
 10
709.2523158129661
 20
-574.0845332839992
 30
0.0
 10
715.235313904734
 20
-568.9842381743035
 30
0.0
 10
721.1616752331714
 20
-563.6663962395252
 30
0.0
 10
727.0236157368211
 20
-558.1380589703048
 30
0.0
 10
732.8134355454547
 20
-552.4065503448385
 30
0.0
 10
738.5235285809481
 20
-546.4794577077015
 30
0.0
 10
744.1463921748124
 20
-540.3646222662143
 30
0.0
 10
749.6746366638549
 20
-534.0701292070243
 30
0.0
 10
755.1009949283477
 20
-527.6042974407427
 30
0.0
 10
760.418331840098
 20
-520.9756689863577
 30
0.0
 10
765.6196535907538
 20
-514.1929980099726
 30
0.0
 10
770.6981168733973
 20
-507.2652395345106
 30
0.0
 10
775.647037892942
 20
-500.2015378385205
 30
0.0
 10
780.4599011830242
 20
-493.0112145633115
 30
0.0
 10
785.1303682089805
 20
-485.703756548468
 30
0.0
 10
789.652285738194
 20
-478.2888034163339
 30
0.0
 10
794.0196939603708
 20
-470.776134926855
 30
0.0
 10
798.2268330598549
 20
-463.1756604400294
 30
0.0
 10
802.268152090991
 20
-455.4974040609234
 30
0.0
 10
806.1383165287501
 20
-447.7514910090016
 30
0.0
 10
809.8322163034493
 20
-439.9481318259602
 30
0.0
 10
813.3449713361867
 20
-432.097610812953
 30
0.0
 10
816.6719376475542
 20
-424.2102728648246
 30
0.0
 10
819.8087133322759
 20
-416.2965098396862
 30
0.0
 10
822.7511441814091
 20
-408.3667468850141
 30
0.0
 10
825.4953289466758
 20
-400.4314287454356
 30
0.0
 10
828.0376242279382
 20
-392.5010060875148
 30
0.0
 10
830.3746490221356
 20
-384.5859218452662
 30
0.0
 10
832.5032887664428
 20
-376.6965977151692
 30
0.0
 10
834.4206994860167
 20
-368.8434204707614
 30
0.0
 10
836.1243097676476
 20
-361.0367294875116
 30
0.0
 10
837.6118290801338
 20
-353.2868004557222
 30
0.0
 10
838.8812306767111
 20
-345.6038442027794
 30
0.0
 10
839.9308276985535
 20
-337.9979501891331
 30
0.0
 10
840.758999856266
 20
-330.4792377529836
 30
0.0
 10
841.3652228268343
 20
-323.0572334192724
 30
0.0
 10
841.7395502324135
 20
-315.8714492308445
 30
0.0
 10
841.8644989695981
 20
-310.5704897965786
 30
0.0
 10
841.8718464349241
 20
-307.7055121024484
 30
0.0
 10
841.8734283110786
 20
-307.0886953232653
 30
0.0
  0
SPLINE
  5
16B
330
1F
100
AcDbEntity
  8
0
  6
Continuous
 62
     7
370
    25
100
AcDbSpline
210
0.0
220
0.0
230
1.0
 70
     8
 71
     3
 72
    22
 73
    18
 74
     0
 42
0.00000001
 43
0.00000001
 40
0.0
 40
0.0
 40
0.0
 40
0.0
 40
0.0369371835744798
 40
0.1071048262813443
 40
0.1772770460268808
 40
0.2474496339307669
 40
0.3176212291561923
 40
0.3877903888885157
 40
0.4579553561572187
 40
0.5281140369662385
 40
0.59826399145697
 40
0.6684024468502265
 40
0.7385263413343592
 40
0.8086324086640929
 40
0.8787173123259098
 40
0.9487778348924392
 40
1.0
 40
1.0
 40
1.0
 40
1.0
 10
841.8734283110786
 20
-307.0886953232653
 30
0.0
 10
841.867178089155
 20
-305.8448733919365
 30
0.0
 10
841.8490546463645
 20
-302.2382277576995
 30
0.0
 10
841.6476959013758
 20
-296.3692600533411
 30
0.0
 10
841.1959111612714
 20
-289.5358380568364
 30
0.0
 10
840.5175350727944
 20
-282.8551258816432
 30
0.0
 10
839.617232295318
 20
-276.3339685037636
 30
0.0
 10
838.4950695579323
 20
-269.9816344856019
 30
0.0
 10
837.1527215279928
 20
-263.8064589464986
 30
0.0
 10
835.5918319947707
 20
-257.816741680808
 30
0.0
 10
833.8143913354386
 20
-252.0205742637825
 30
0.0
 10
831.8228874787628
 20
-246.4255697480006
 30
0.0
 10
829.6193460405326
 20
-241.0400377910325
 30
0.0
 10
827.2090354381507
 20
-235.8684665332118
 30
0.0
 10
824.5866214996579
 20
-230.9283121133049
 30
0.0
 10
822.0383123379886
 20
-226.6115984594153
 30
0.0
 10
820.2766515992852
 20
-224.0502675717709
 30
0.0
 10
819.532637107589
 20
-222.9685227973266
 30
0.0
  0
SPLINE
  5
16C
330
1F
100
AcDbEntity
  8
0
  6
Continuous
 62
     7
370
    25
100
AcDbSpline
210
0.0
220
0.0
230
1.0
 70
     8
 71
     3
 72
    20
 73
    16
 74
     0
 42
0.00000001
 43
0.00000001
 40
0.0
 40
0.0
 40
0.0
 40
0.0
 40
0.0335803083878018
 40
0.1149132400525937
 40
0.19618770858253
 40
0.2774087451006277
 40
0.3585831707091272
 40
0.4397186141573075
 40
0.5208227522295336
 40
0.6019027898140047
 40
0.6829651526873911
 40
0.7640153465858281
 40
0.8450579333758094
 40
0.9260965814096785
 40
1.0
 40
1.0
 40
1.0
 40
1.0
 10
752.678174587057
 20
-261.5246622458366
 30
0.0
 10
753.0425662161682
 20
-262.0132064053354
 30
0.0
 10
754.2895298314405
 20
-263.6850252471534
 30
0.0
 10
756.2178101958779
 20
-266.7943043239262
 30
0.0
 10
758.4610367045914
 20
-270.8372170811834
 30
0.0
 10
760.4905262019129
 20
-275.1189999028128
 30
0.0
 10
762.317335979062
 20
-279.6128846543484
 30
0.0
 10
763.9342812176022
 20
-284.3156928707786
 30
0.0
 10
765.339453801626
 20
-289.2175000861744
 30
0.0
 10
766.530079319666
 20
-294.3096593422677
 30
0.0
 10
767.5036175816676
 20
-299.5829738876564
 30
0.0
 10
768.2595603561224
 20
-305.0269798457037
 30
0.0
 10
768.7912217749064
 20
-310.6346700461749
 30
0.0
 10
769.1073025796653
 20
-316.2156621914671
 30
0.0
 10
769.1448439264049
 20
-319.9857875736818
 30
0.0
 10
769.162750192424
 20
-321.7840413360742
 30
0.0
  0
SPLINE
  5
16D
330
1F
100
AcDbEntity
  8
0
  6
Continuous
 62
     7
370
    25
100
AcDbSpline
210
0.0
220
0.0
230
1.0
 70
     8
 71
     3
 72
    57
 73
    53
 74
     0
 42
0.00000001
 43
0.00000001
 40
0.0
 40
0.0
 40
0.0
 40
0.0
 40
0.0108299757357948
 40
0.0314230138822243
 40
0.0520181465608415
 40
0.0726142696397026
 40
0.0932115587463179
 40
0.1138101138833084
 40
0.1344099758234585
 40
0.155011139693065
 40
0.1756135658855557
 40
0.1962171887037474
 40
0.2168219231133074
 40
0.2374276699527302
 40
0.2580343198993027
 40
0.2786417564442266
 40
0.2992498580870067
 40
0.3198584999216234
 40
0.3404675547552189
 40
0.3610768938743044
 40
0.381686387553092
 40
0.4022959053832684
 40
0.4229052808638216
 40
0.443514374922331
 40
0.4641230564041894
 40
0.4847311944067165
 40
0.5053386587227765
 40
0.5259453205186352
 40
0.5465510533353299
 40
0.5671557345231415
 40
0.5877592472434165
 40
0.608361483202437
 40
0.6289623463188841
 40
0.6495617575688911
 40
0.6701596612998892
 40
0.6907560333528295
 40
0.7113508913757487
 40
0.7319443077390346
 40
0.7525364254557119
 40
0.7731274774397634
 40
0.7937178092592372
 40
0.8143078835021752
 40
0.834898138266547
 40
0.8554893542163823
 40
0.8760825275843068
 40
0.8966788931572038
 40
0.9172799354379517
 40
0.9378873789514234
 40
0.9585031463075121
 40
0.9791292713640833
 40
0.9997677561824371
 40
1.0
 40
1.0
 40
1.0
 40
1.0
 10
769.162750192424
 20
-321.7840413360742
 30
0.0
 10
769.156567054087
 20
-322.8306071563554
 30
0.0
 10
769.1386267699592
 20
-325.8672023530245
 30
0.0
 10
768.9391747914295
 20
-330.9901146005349
 30
0.0
 10
768.4915495655706
 20
-337.1808615031332
 30
0.0
 10
767.819631386212
 20
-343.4750188330021
 30
0.0
 10
766.9283992318182
 20
-349.8583691654815
 30
0.0
 10
765.8183969063072
 20
-356.3195734573936
 30
0.0
 10
764.4918854292114
 20
-362.8463537198143
 30
0.0
 10
762.9511931110893
 20
-369.4265113796109
 30
0.0
 10
761.1991522306264
 20
-376.0476865121479
 30
0.0
 10
759.2389752274777
 20
-382.6974542003133
 30
0.0
 10
757.0742799119944
 20
-389.3633302502063
 30
0.0
 10
754.7090736825885
 20
-396.0328008987491
 30
0.0
 10
752.1477477603127
 20
-402.6933458022829
 30
0.0
 10
749.395067842761
 20
-409.3324625429697
 30
0.0
 10
746.4561648769246
 20
-415.9376904487006
 30
0.0
 10
743.3365250040681
 20
-422.4966343146742
 30
0.0
 10
740.041978966868
 20
-428.9969878607854
 30
0.0
 10
736.5786909319252
 20
-435.426556955869
 30
0.0
 10
732.9531467677955
 20
-441.7732825819305
 30
0.0
 10
729.172143970348
 20
-448.0252599226895
 30
0.0
 10
725.2427776101492
 20
-454.1707638472339
 30
0.0
 10
721.1724265832805
 20
-460.1982719507437
 30
0.0
 10
716.9687372668267
 20
-466.0964896752229
 30
0.0
 10
712.6396108886423
 20
-471.8543688217268
 30
0.0
 10
708.1931893593301
 20
-477.4611277665597
 30
0.0
 10
703.6378401507743
 20
-482.9062720688764
 30
0.0
 10
698.9821407317521
 20
-488.1796146579426
 30
0.0
 10
694.2348625607209
 20
-493.2712955789997
 30
0.0
 10
689.4049546292653
 20
-498.1718012762267
 30
0.0
 10
684.5015265413498
 20
-502.8719833894847
 30
0.0
 10
679.5338311032912
 20
-507.3630770376602
 30
0.0
 10
674.5112463871964
 20
-511.6367185543344
 30
0.0
 10
669.4432572165496
 20
-515.6849626304006
 30
0.0
 10
664.3394360082323
 20
-519.5002987991237
 30
0.0
 10
659.2094228885155
 20
-523.0756671783125
 30
0.0
 10
654.0629049969496
 20
-526.4044733276257
 30
0.0
 10
648.9095948576323
 20
-529.4806021023917
 30
0.0
 10
643.7592078187442
 20
-532.2984300451847
 30
0.0
 10
638.6214399807915
 20
-534.852835903342
 30
0.0
 10
633.5059600909274
 20
-537.1392010520594
 30
0.0
 10
628.4223684238377
 20
-539.1534327830061
 30
0.0
 10
623.3801794712089
 20
-540.891943438572
 30
0.0
 10
618.3887402983887
 20
-542.3517520572441
 30
0.0
 10
613.4573662587651
 20
-543.530110145951
 30
0.0
 10
608.5947599026315
 20
-544.4258530254763
 30
0.0
 10
603.8110688764003
 20
-545.0343079040784
 30
0.0
 10
599.1101103310045
 20
-545.3662383717287
 30
0.0
 10
594.5183481338439
 20
-545.3770115644237
 30
0.0
 10
591.4745036406316
 20
-545.2791994802217
 30
0.0
 10
589.9968652677982
 20
-545.0987156445497
 30
0.0
 10
589.9804225080521
 20
-545.0967072692919
 30
0.0
  0
SPLINE
  5
16E
330
1F
100
AcDbEntity
  8
0
  6
Continuous
 62
     7
370
    25
100
AcDbSpline
210
0.0
220
0.0
230
1.0
 70
     8
 71
     3
 72
    13
 73
     9
 74
     0
 42
0.00000001
 43
0.00000001
 40
0.0
 40
0.0
 40
0.0
 40
0.0
 40
0.0884811926551828
 40
0.3131877944236304
 40
0.5300342937927849
 40
0.7392297751211481
 40
0.9449828409040627
 40
1.0
 40
1.0
 40
1.0
 40
1.0
 10
782.1803347181398
 20
-391.3056463519246
 30
0.0
 10
782.3021435579703
 20
-391.3765387347296
 30
0.0
 10
782.7332978037828
 20
-391.6274692245421
 30
0.0
 10
783.3081894264142
 20
-392.3347075091688
 30
0.0
 10
783.8869523673347
 20
-393.422503264764
 30
0.0
 10
784.2537325932544
 20
-394.7427924093554
 30
0.0
 10
784.3814034262308
 20
-395.8730179261848
 30
0.0
 10
784.3888669869963
 20
-396.5466028231032
 30
0.0
 10
784.3904416449552
 20
-396.6887153954094
 30
0.0
  0
SPLINE
  5
16F
330
1F
100
AcDbEntity
  8
0
  6
Continuous
 62
     7
370
    25
100
AcDbSpline
210
0.0
220
0.0
230
1.0
 70
     8
 71
     3
 72
    23
 73
    19
 74
     0
 42
0.00000001
 43
0.00000001
 40
0.0
 40
0.0
 40
0.0
 40
0.0
 40
0.0335894183173933
 40
0.098009068647264
 40
0.1626136377275734
 40
0.2273772989805831
 40
0.292270704417914
 40
0.3572397387519052
 40
0.4222220655242401
 40
0.4871348730787288
 40
0.5519085973445504
 40
0.6164811775628305
 40
0.6808078259984838
 40
0.7448964574291443
 40
0.8088825689857811
 40
0.8730223831884142
 40
0.9380494480027505
 40
0.9999999999999999
 40
0.9999999999999999
 40
0.9999999999999999
 40
0.9999999999999999
 10
784.3904416449552
 20
-396.6887153954094
 30
0.0
 10
784.3847148341611
 20
-396.9704462081898
 30
0.0
 10
784.3680048278445
 20
-397.7924960069965
 30
0.0
 10
784.179399855875
 20
-399.2536057745782
 30
0.0
 10
783.7547769730373
 20
-401.0636907151733
 30
0.0
 10
783.123869139932
 20
-402.9114787746798
 30
0.0
 10
782.3039283870066
 20
-404.7475546547446
 30
0.0
 10
781.3132765495067
 20
-406.5263696904486
 30
0.0
 10
780.1767659006346
 20
-408.2027412275464
 30
0.0
 10
778.9235613033858
 20
-409.7345622985256
 30
0.0
 10
777.5868307280604
 20
-411.0838441548369
 30
0.0
 10
776.2027599474842
 20
-412.2181338557835
 30
0.0
 10
774.809580152671
 20
-413.1119683813445
 30
0.0
 10
773.4465849932471
 20
-413.7476026929699
 30
0.0
 10
772.1509380892358
 20
-414.1189621513425
 30
0.0
 10
770.9590282529899
 20
-414.2220082669175
 30
0.0
 10
769.9041522034122
 20
-414.0953100640542
 30
0.0
 10
769.323812798119
 20
-413.8151474590258
 30
0.0
 10
769.0406735535306
 20
-413.6784601556545
 30
0.0
  0
SPLINE
  5
170
330
1F
100
AcDbEntity
  8
0
  6
Continuous
 62
     7
370
    25
100
AcDbSpline
210
0.0
220
0.0
230
1.0
 70
     8
 71
     3
 72
    13
 73
     9
 74
     0
 42
0.00000001
 43
0.00000001
 40
0.0
 40
0.0
 40
0.0
 40
0.0
 40
0.0884811926552561
 40
0.31318779442369
 40
0.5300342937928646
 40
0.7392297751212443
 40
0.9449828409041635
 40
1.0
 40
1.0
 40
1.0
 40
1.0
 10
729.1224304721173
 20
-483.2046319794408
 30
0.0
 10
729.2442393119479
 20
-483.2755243622458
 30
0.0
 10
729.6753935577605
 20
-483.5264548520584
 30
0.0
 10
730.2502851803919
 20
-484.2336931366853
 30
0.0
 10
730.8290481213123
 20
-485.3214888922807
 30
0.0
 10
731.195828347232
 20
-486.641778036872
 30
0.0
 10
731.3234991802082
 20
-487.7720035537015
 30
0.0
 10
731.3309627409736
 20
-488.4455884506195
 30
0.0
 10
731.3325373989326
 20
-488.5877010229254
 30
0.0
  0
SPLINE
  5
171
330
1F
100
AcDbEntity
  8
0
  6
Continuous
 62
     7
370
    25
100
AcDbSpline
210
0.0
220
0.0
230
1.0
 70
     8
 71
     3
 72
    23
 73
    19
 74
     0
 42
0.00000001
 43
0.00000001
 40
0.0
 40
0.0
 40
0.0
 40
0.0
 40
0.033589418317393
 40
0.0980090686472728
 40
0.1626136377275794
 40
0.2273772989805936
 40
0.2922707044179194
 40
0.3572397387519187
 40
0.4222220655242542
 40
0.4871348730787477
 40
0.5519085973445662
 40
0.6164811775628489
 40
0.6808078259985024
 40
0.7448964574291715
 40
0.8088825689858052
 40
0.8730223831884453
 40
0.9380494480027785
 40
0.9999999999999999
 40
0.9999999999999999
 40
0.9999999999999999
 40
0.9999999999999999
 10
731.3325373989326
 20
-488.5877010229254
 30
0.0
 10
731.3268105881384
 20
-488.8694318357058
 30
0.0
 10
731.310100581822
 20
-489.6914816345126
 30
0.0
 10
731.1214956098523
 20
-491.1525914020945
 30
0.0
 10
730.6968727270147
 20
-492.9626763426896
 30
0.0
 10
730.0659648939094
 20
-494.810464402196
 30
0.0
 10
729.2460241409839
 20
-496.646540282261
 30
0.0
 10
728.2553723034838
 20
-498.425355317965
 30
0.0
 10
727.1188616546116
 20
-500.1017268550629
 30
0.0
 10
725.8656570573627
 20
-501.6335479260421
 30
0.0
 10
724.5289264820373
 20
-502.9828297823533
 30
0.0
 10
723.1448557014611
 20
-504.1171194833
 30
0.0
 10
721.7516759066478
 20
-505.0109540088609
 30
0.0
 10
720.3886807472239
 20
-505.6465883204862
 30
0.0
 10
719.0930338432124
 20
-506.0179477788587
 30
0.0
 10
717.9011240069666
 20
-506.1209938944335
 30
0.0
 10
716.8462479573893
 20
-505.9942956915701
 30
0.0
 10
716.2659085520961
 20
-505.7141330865417
 30
0.0
 10
715.9827693075079
 20
-505.5774457831704
 30
0.0
  0
SPLINE
  5
172
330
1F
100
AcDbEntity
  8
0
  6
Continuous
 62
     7
370
    25
100
AcDbSpline
210
0.0
220
0.0
230
1.0
 70
     8
 71
     3
 72
    70
 73
    66
 74
     0
 42
0.00000001
 43
0.00000001
 40
0.0
 40
0.0
 40
0.0
 40
0.0
 40
0.0124963713510082
 40
0.0286704287093782
 40
0.0448326754821876
 40
0.0609839723658363
 40
0.0771255968440483
 40
0.0932590378618948
 40
0.1093858314947951
 40
0.125507444444472
 40
0.1416252019098672
 40
0.1577402512824185
 40
0.1738535517991669
 40
0.1899658811629907
 40
0.2060778519584772
 40
0.2221898210964722
 40
0.238302143204277
 40
0.2544150957827289
 40
0.2705288685577988
 40
0.2866435809671065
 40
0.3027592970143847
 40
0.3188760375807929
 40
0.3349937904336746
 40
0.3511125182339148
 40
0.3672321648526423
 40
0.3833526602895678
 40
0.399473924453345
 40
0.4155958700279387
 40
0.4317184046132652
 40
0.4478414322957344
 40
0.4639648547762075
 40
0.4800885721593574
 40
0.4962124834895011
 40
0.5123364871031868
 40
0.5284604774917903
 40
0.5445843214655434
 40
0.5607079164140748
 40
0.5768311597566753
 40
0.5929539491918083
 40
0.6090761830899641
 40
0.6251977610873931
 40
0.641318584955408
 40
0.6574385598358613
 40
0.6735575959541452
 40
0.6896756109460942
 40
0.7057925329654285
 40
0.7219083047727033
 40
0.7380228890443096
 40
0.7541362751773815
 40
0.7702484878980776
 40
0.7863595979962174
 40
0.8024697354925399
 40
0.8185791054705766
 40
0.8346880066358432
 40
0.8507967885688706
 40
0.8669058676425988
 40
0.8830158998927815
 40
0.8991277156691058
 40
0.9152423356137007
 40
0.9313609756061515
 40
0.9474850330550272
 40
0.9636160452177641
 40
0.9797556096744617
 40
0.9959052589813383
 40
1.0
 40
1.0
 40
1.0
 40
1.0
 10
571.562315392464
 20
-536.1625433152251
 30
0.0
 10
570.8637927687898
 20
-535.269660857089
 30
0.0
 10
569.2611720942432
 20
-533.2211203533864
 30
0.0
 10
566.9792696795765
 20
-529.7285755170468
 30
0.0
 10
564.6843241595781
 20
-525.7444720724625
 30
0.0
 10
562.5964356614579
 20
-521.5263538683865
 30
0.0
 10
560.711746902151
 20
-517.0920067540492
 30
0.0
 10
559.0356420683024
 20
-512.4468861300943
 30
0.0
 10
557.5706059000574
 20
-507.600193692962
 30
0.0
 10
556.3194726805302
 20
-502.5605857776785
 30
0.0
 10
555.2845460694048
 20
-497.3373282491756
 30
0.0
 10
554.4678191603674
 20
-491.9399850269357
 30
0.0
 10
553.870897899228
 20
-486.3784912104223
 30
0.0
 10
553.4950043783074
 20
-480.6631162047249
 30
0.0
 10
553.3409610802114
 20
-474.8044643172952
 30
0.0
 10
553.4091801149239
 20
-468.8134382846242
 30
0.0
 10
553.6996564009469
 20
-462.7012125514561
 30
0.0
 10
554.2119659945539
 20
-456.4791937506235
 30
0.0
 10
554.9452645166617
 20
-450.159010433814
 30
0.0
 10
555.8982863540155
 20
-443.752491231478
 30
0.0
 10
557.0693456150848
 20
-437.2716391421735
 30
0.0
 10
558.456338575965
 20
-430.728605901234
 30
0.0
 10
560.0567474118188
 20
-424.1356665273245
 30
0.0
 10
561.8676450471457
 20
-417.5051940910157
 30
0.0
 10
563.8857009901191
 20
-410.8496347213292
 30
0.0
 10
566.1071880451849
 20
-404.1814828504578
 30
0.0
 10
568.5279898216893
 20
-397.5132566906074
 30
0.0
 10
571.1436089749442
 20
-390.8574739361635
 30
0.0
 10
573.9491761303117
 20
-384.2266276868515
 30
0.0
 10
576.9394594513391
 20
-377.6331625915778
 30
0.0
 10
580.1088748204695
 20
-371.089451217168
 30
0.0
 10
583.4514966060462
 20
-364.6077706506659
 30
0.0
 10
586.9610689929323
 20
-358.2002793476759
 30
0.0
 10
590.6310176007465
 20
-351.8789946828127
 30
0.0
 10
594.4544596612897
 20
-345.6557738218762
 30
0.0
 10
598.4242189412973
 20
-339.5422871341838
 30
0.0
 10
602.53283951856
 20
-333.5499956801656
 30
0.0
 10
606.772602275848
 20
-327.6901263355697
 30
0.0
 10
611.1355368195647
 20
-321.9736544622548
 30
0.0
 10
615.613436279429
 20
-316.4112830122628
 30
0.0
 10
620.1978725548952
 20
-311.013422036092
 30
0.0
 10
624.8802120037689
 20
-305.7901686174291
 30
0.0
 10
629.651631574764
 20
-300.751287255192
 30
0.0
 10
634.5031353926487
 20
-295.9061907147831
 30
0.0
 10
639.4255718135199
 20
-291.2639213726982
 30
0.0
 10
644.4096509785211
 20
-286.8331330832855
 30
0.0
 10
649.4459629070283
 20
-282.622073604603
 30
0.0
 10
654.5249961847276
 20
-278.6385676331217
 30
0.0
 10
659.6371573166715
 20
-274.8900005177867
 30
0.0
 10
664.7727908309533
 20
-271.383302749373
 30
0.0
 10
669.9222002233147
 20
-268.1249353744577
 30
0.0
 10
675.0756698547445
 20
-265.1208764893691
 30
0.0
 10
680.2234878230529
 20
-262.3766092197223
 30
0.0
 10
685.3559632980675
 20
-259.8971142754266
 30
0.0
 10
690.4634437081811
 20
-257.6868642349248
 30
0.0
 10
695.5363515245306
 20
-255.7498059998856
 30
0.0
 10
700.5652100237235
 20
-254.08937238025
 30
0.0
 10
705.5407033564321
 20
-252.7084185163446
 30
0.0
 10
710.453593138321
 20
-251.6094699809198
 30
0.0
 10
715.2951158182319
 20
-250.7938418307116
 30
0.0
 10
720.0556060339273
 20
-250.2649807671141
 30
0.0
 10
724.7297210565811
 20
-250.0160591479548
 30
0.0
 10
729.296979143242
 20
-250.0763950170879
 30
0.0
 10
732.6743821971128
 20
-250.2729667721438
 30
0.0
 10
734.4882272439435
 20
-250.5402797738026
 30
0.0
 10
734.8551054554047
 20
-250.5943479623285
 30
0.0
  0
SPLINE
  5
173
330
1F
100
AcDbEntity
  8
0
  6
Continuous
 62
     7
370
    25
100
AcDbSpline
210
0.0
220
0.0
230
1.0
 70
     8
 71
     3
 72
    13
 73
     9
 74
     0
 42
0.00000001
 43
0.00000001
 40
0.0
 40
0.0
 40
0.0
 40
0.0
 40
0.0884811926552131
 40
0.3131877944236335
 40
0.5300342937928273
 40
0.7392297751211879
 40
0.9449828409041023
 40
0.9999999999999999
 40
0.9999999999999999
 40
0.9999999999999999
 40
0.9999999999999999
 10
801.6008755437493
 20
-296.3989735529519
 30
0.0
 10
801.7226843835799
 20
-296.469865935757
 30
0.0
 10
802.1538386293923
 20
-296.7207964255693
 30
0.0
 10
802.7287302520238
 20
-297.4280347101962
 30
0.0
 10
803.3074931929443
 20
-298.5158304657914
 30
0.0
 10
803.6742734188639
 20
-299.8361196103829
 30
0.0
 10
803.8019442518403
 20
-300.9663451272123
 30
0.0
 10
803.8094078126056
 20
-301.6399300241306
 30
0.0
 10
803.8109824705647
 20
-301.7820425964366
 30
0.0
  0
SPLINE
  5
174
330
1F
100
AcDbEntity
  8
0
  6
Continuous
 62
     7
370
    25
100
AcDbSpline
210
0.0
220
0.0
230
1.0
 70
     8
 71
     3
 72
    23
 73
    19
 74
     0
 42
0.00000001
 43
0.00000001
 40
0.0
 40
0.0
 40
0.0
 40
0.0
 40
0.033589418317393
 40
0.0980090686472637
 40
0.1626136377275731
 40
0.2273772989805831
 40
0.2922707044179139
 40
0.3572397387519059
 40
0.4222220655242417
 40
0.4871348730787359
 40
0.5519085973445528
 40
0.6164811775628359
 40
0.6808078259984897
 40
0.7448964574291519
 40
0.8088825689857877
 40
0.8730223831884224
 40
0.9380494480027596
 40
1.0
 40
1.0
 40
1.0
 40
1.0
 10
803.8109824705647
 20
-301.7820425964366
 30
0.0
 10
803.8052556597705
 20
-302.063773409217
 30
0.0
 10
803.788545653454
 20
-302.8858232080238
 30
0.0
 10
803.5999406814844
 20
-304.3469329756055
 30
0.0
 10
803.1753177986468
 20
-306.1570179162005
 30
0.0
 10
802.5444099655417
 20
-308.0048059757071
 30
0.0
 10
801.7244692126162
 20
-309.8408818557718
 30
0.0
 10
800.7338173751161
 20
-311.6196968914759
 30
0.0
 10
799.5973067262439
 20
-313.2960684285738
 30
0.0
 10
798.3441021289951
 20
-314.8278894995531
 30
0.0
 10
797.0073715536697
 20
-316.1771713558642
 30
0.0
 10
795.6233007730935
 20
-317.311461056811
 30
0.0
 10
794.2301209782803
 20
-318.2052955823718
 30
0.0
 10
792.8671258188564
 20
-318.8409298939973
 30
0.0
 10
791.571478914845
 20
-319.2122893523697
 30
0.0
 10
790.3795690785992
 20
-319.3153354679447
 30
0.0
 10
789.3246930290217
 20
-319.1886372650813
 30
0.0
 10
788.7443536237284
 20
-318.9084746600529
 30
0.0
 10
788.4612143791401
 20
-318.7717873566817
 30
0.0
  0
SPLINE
  5
175
330
1F
100
AcDbEntity
  8
0
  6
Continuous
 62
     7
370
    25
100
AcDbSpline
210
0.0
220
0.0
230
1.0
 70
     8
 71
     3
 72
    13
 73
     9
 74
     0
 42
0.00000001
 43
0.00000001
 40
0.0
 40
0.0
 40
0.0
 40
0.0
 40
0.0884811926552148
 40
0.3131877944236455
 40
0.5300342937928049
 40
0.7392297751211797
 40
0.9449828409040866
 40
0.9999999999999999
 40
0.9999999999999999
 40
0.9999999999999999
 40
0.9999999999999999
 10
656.6439854004909
 20
-547.4716714513677
 30
0.0
 10
656.7657942403216
 20
-547.5425638341728
 30
0.0
 10
657.1969484861339
 20
-547.7934943239852
 30
0.0
 10
657.7718401087656
 20
-548.500732608612
 30
0.0
 10
658.350603049686
 20
-549.5885283642073
 30
0.0
 10
658.7173832756056
 20
-550.9088175087987
 30
0.0
 10
658.845054108582
 20
-552.0390430256281
 30
0.0
 10
658.8525176693474
 20
-552.7126279225464
 30
0.0
 10
658.8540923273064
 20
-552.8547404948525
 30
0.0
  0
SPLINE
  5
176
330
1F
100
AcDbEntity
  8
0
  6
Continuous
 62
     7
370
    25
100
AcDbSpline
210
0.0
220
0.0
230
1.0
 70
     8
 71
     3
 72
    23
 73
    19
 74
     0
 42
0.00000001
 43
0.00000001
 40
0.0
 40
0.0
 40
0.0
 40
0.0
 40
0.0335894183173931
 40
0.0980090686472694
 40
0.1626136377275771
 40
0.2273772989805913
 40
0.2922707044179192
 40
0.3572397387519187
 40
0.4222220655242495
 40
0.4871348730787441
 40
0.5519085973445642
 40
0.6164811775628415
 40
0.6808078259984957
 40
0.7448964574291593
 40
0.8088825689857945
 40
0.8730223831884242
 40
0.9380494480027666
 40
0.9999999999999999
 40
0.9999999999999999
 40
0.9999999999999999
 40
0.9999999999999999
 10
658.8540923273064
 20
-552.8547404948525
 30
0.0
 10
658.8483655165122
 20
-553.1364713076329
 30
0.0
 10
658.8316555101958
 20
-553.9585211064398
 30
0.0
 10
658.643050538226
 20
-555.4196308740214
 30
0.0
 10
658.2184276553884
 20
-557.2297158146166
 30
0.0
 10
657.5875198222833
 20
-559.0775038741232
 30
0.0
 10
656.7675790693577
 20
-560.9135797541879
 30
0.0
 10
655.7769272318577
 20
-562.6923947898921
 30
0.0
 10
654.6404165829855
 20
-564.3687663269899
 30
0.0
 10
653.3872119857367
 20
-565.900587397969
 30
0.0
 10
652.0504814104112
 20
-567.2498692542803
 30
0.0
 10
650.6664106298351
 20
-568.384158955227
 30
0.0
 10
649.2732308350219
 20
-569.2779934807878
 30
0.0
 10
647.9102356755981
 20
-569.9136277924131
 30
0.0
 10
646.6145887715866
 20
-570.2849872507855
 30
0.0
 10
645.4226789353407
 20
-570.3880333663607
 30
0.0
 10
644.3678028857634
 20
-570.261335163497
 30
0.0
 10
643.7874634804701
 20
-569.9811725584688
 30
0.0
 10
643.5043242358817
 20
-569.8444852550975
 30
0.0
  0
SPLINE
  5
177
330
1F
100
AcDbEntity
  8
0
  6
Continuous
 62
     7
370
    25
100
AcDbSpline
210
0.0
220
0.0
230
1.0
 70
     8
 71
     3
 72
    13
 73
     9
 74
     0
 42
0.00000001
 43
0.00000001
 40
0.0
 40
0.0
 40
0.0
 40
0.0
 40
0.0884811926552497
 40
0.3131877944236918
 40
0.53003429379287
 40
0.7392297751212364
 40
0.9449828409041581
 40
1.0
 40
1.0
 40
1.0
 40
1.0
 10
782.1803347181481
 20
-223.9147799153319
 30
0.0
 10
782.3021435579786
 20
-223.985672298137
 30
0.0
 10
782.7332978037912
 20
-224.2366027879494
 30
0.0
 10
783.3081894264227
 20
-224.9438410725764
 30
0.0
 10
783.886952367343
 20
-226.0316368281718
 30
0.0
 10
784.2537325932627
 20
-227.3519259727633
 30
0.0
 10
784.3814034262389
 20
-228.4821514895926
 30
0.0
 10
784.3888669870043
 20
-229.1557363865107
 30
0.0
 10
784.3904416449633
 20
-229.2978489588165
 30
0.0
  0
SPLINE
  5
178
330
1F
100
AcDbEntity
  8
0
  6
Continuous
 62
     7
370
    25
100
AcDbSpline
210
0.0
220
0.0
230
1.0
 70
     8
 71
     3
 72
    23
 73
    19
 74
     0
 42
0.00000001
 43
0.00000001
 40
0.0
 40
0.0
 40
0.0
 40
0.0
 40
0.0335894183173931
 40
0.0980090686472633
 40
0.1626136377275723
 40
0.2273772989805815
 40
0.2922707044179131
 40
0.3572397387519107
 40
0.4222220655242458
 40
0.4871348730787404
 40
0.5519085973445617
 40
0.6164811775628427
 40
0.6808078259984963
 40
0.7448964574291613
 40
0.8088825689857976
 40
0.873022383188434
 40
0.9380494480027681
 40
0.9999999999999999
 40
0.9999999999999999
 40
0.9999999999999999
 40
0.9999999999999999
 10
784.3904416449633
 20
-229.2978489588166
 30
0.0
 10
784.3847148341691
 20
-229.5795797715971
 30
0.0
 10
784.3680048278527
 20
-230.4016295704037
 30
0.0
 10
784.179399855883
 20
-231.8627393379854
 30
0.0
 10
783.7547769730454
 20
-233.6728242785805
 30
0.0
 10
783.1238691399402
 20
-235.520612338087
 30
0.0
 10
782.3039283870147
 20
-237.3566882181519
 30
0.0
 10
781.3132765495147
 20
-239.135503253856
 30
0.0
 10
780.1767659006424
 20
-240.8118747909539
 30
0.0
 10
778.9235613033937
 20
-242.3436958619332
 30
0.0
 10
777.5868307280681
 20
-243.6929777182444
 30
0.0
 10
776.202759947492
 20
-244.827267419191
 30
0.0
 10
774.8095801526788
 20
-245.721101944752
 30
0.0
 10
773.4465849932549
 20
-246.3567362563773
 30
0.0
 10
772.1509380892434
 20
-246.7280957147498
 30
0.0
 10
770.9590282529975
 20
-246.8311418303247
 30
0.0
 10
769.9041522034202
 20
-246.7044436274613
 30
0.0
 10
769.323812798127
 20
-246.4242810224329
 30
0.0
 10
769.0406735535387
 20
-246.2875937190616
 30
0.0
  0
SPLINE
  5
179
330
1F
100
AcDbEntity
  8
0
  6
Continuous
 62
     7
370
    25
100
AcDbSpline
210
0.0
220
0.0
230
1.0
 70
     8
 71
     3
 72
    13
 73
     9
 74
     0
 42
0.00000001
 43
0.00000001
 40
0.0
 40
0.0
 40
0.0
 40
0.0
 40
0.0884811926552561
 40
0.31318779442369
 40
0.5300342937928646
 40
0.7392297751212443
 40
0.9449828409041635
 40
1.0
 40
1.0
 40
1.0
 40
1.0
 10
584.1655403288672
 20
-566.8864634412639
 30
0.0
 10
584.2873491686978
 20
-566.957355824069
 30
0.0
 10
584.7185034145103
 20
-567.2082863138816
 30
0.0
 10
585.2933950371417
 20
-567.9155245985083
 30
0.0
 10
585.8721579780622
 20
-569.0033203541038
 30
0.0
 10
586.2389382039819
 20
-570.3236094986952
 30
0.0
 10
586.3666090369579
 20
-571.4538350155245
 30
0.0
 10
586.3740725977235
 20
-572.1274199124426
 30
0.0
 10
586.3756472556825
 20
-572.2695324847484
 30
0.0
  0
SPLINE
  5
17A
330
1F
100
AcDbEntity
  8
0
  6
Continuous
 62
     7
370
    25
100
AcDbSpline
210
0.0
220
0.0
230
1.0
 70
     8
 71
     3
 72
    23
 73
    19
 74
     0
 42
0.00000001
 43
0.00000001
 40
0.0
 40
0.0
 40
0.0
 40
0.0
 40
0.033589418317393
 40
0.0980090686472728
 40
0.1626136377275794
 40
0.2273772989805936
 40
0.2922707044179194
 40
0.3572397387519187
 40
0.4222220655242542
 40
0.4871348730787477
 40
0.5519085973445662
 40
0.6164811775628489
 40
0.6808078259985024
 40
0.7448964574291715
 40
0.8088825689858052
 40
0.8730223831884453
 40
0.9380494480027785
 40
0.9999999999999999
 40
0.9999999999999999
 40
0.9999999999999999
 40
0.9999999999999999
 10
586.3756472556825
 20
-572.2695324847484
 30
0.0
 10
586.3699204448883
 20
-572.551263297529
 30
0.0
 10
586.3532104385719
 20
-573.3733130963357
 30
0.0
 10
586.1646054666021
 20
-574.8344228639176
 30
0.0
 10
585.7399825837646
 20
-576.6445078045127
 30
0.0
 10
585.1090747506594
 20
-578.4922958640193
 30
0.0
 10
584.2891339977338
 20
-580.328371744084
 30
0.0
 10
583.2984821602337
 20
-582.1071867797881
 30
0.0
 10
582.1619715113615
 20
-583.783558316886
 30
0.0
 10
580.9087669141127
 20
-585.3153793878653
 30
0.0
 10
579.5720363387871
 20
-586.6646612441764
 30
0.0
 10
578.1879655582111
 20
-587.798950945123
 30
0.0
 10
576.7947857633978
 20
-588.6927854706839
 30
0.0
 10
575.4317906039739
 20
-589.3284197823092
 30
0.0
 10
574.1361436999623
 20
-589.6997792406818
 30
0.0
 10
572.9442338637165
 20
-589.8028253562566
 30
0.0
 10
571.8893578141392
 20
-589.6761271533932
 30
0.0
 10
571.3090184088461
 20
-589.3959645483649
 30
0.0
 10
571.0258791642577
 20
-589.2592772449937
 30
0.0
  0
SPLINE
  5
17B
330
1F
100
AcDbEntity
  8
0
  6
Continuous
 62
     7
370
    25
100
AcDbSpline
210
0.0
220
0.0
230
1.0
 70
     8
 71
     3
 72
    13
 73
     9
 74
     0
 42
0.00000001
 43
0.00000001
 40
0.0
 40
0.0
 40
0.0
 40
0.0
 40
0.0884811926552617
 40
0.313187794423709
 40
0.53003429379287
 40
0.7392297751212394
 40
0.9449828409041666
 40
1.0
 40
1.0
 40
1.0
 40
1.0
 10
729.1224304721314
 20
-193.2751465882862
 30
0.0
 10
729.244239311962
 20
-193.3460389710913
 30
0.0
 10
729.6753935577746
 20
-193.5969694609038
 30
0.0
 10
730.2502851804061
 20
-194.3042077455306
 30
0.0
 10
730.8290481213265
 20
-195.3920035011261
 30
0.0
 10
731.1958283472461
 20
-196.7122926457174
 30
0.0
 10
731.3234991802223
 20
-197.8425181625468
 30
0.0
 10
731.3309627409877
 20
-198.5161030594649
 30
0.0
 10
731.3325373989467
 20
-198.6582156317707
 30
0.0
  0
SPLINE
  5
17C
330
1F
100
AcDbEntity
  8
0
  6
Continuous
 62
     7
370
    25
100
AcDbSpline
210
0.0
220
0.0
230
1.0
 70
     8
 71
     3
 72
    23
 73
    19
 74
     0
 42
0.00000001
 43
0.00000001
 40
0.0
 40
0.0
 40
0.0
 40
0.0
 40
0.033589418317393
 40
0.0980090686472729
 40
0.1626136377275786
 40
0.2273772989805938
 40
0.2922707044179229
 40
0.3572397387519219
 40
0.4222220655242526
 40
0.4871348730787398
 40
0.5519085973445642
 40
0.6164811775628465
 40
0.6808078259985001
 40
0.7448964574291629
 40
0.8088825689857961
 40
0.8730223831884367
 40
0.9380494480027697
 40
1.0
 40
1.0
 40
1.0
 40
1.0
 10
731.3325373989467
 20
-198.6582156317708
 30
0.0
 10
731.3268105881526
 20
-198.9399464445512
 30
0.0
 10
731.3101005818361
 20
-199.7619962433581
 30
0.0
 10
731.1214956098664
 20
-201.2231060109398
 30
0.0
 10
730.6968727270288
 20
-203.033190951535
 30
0.0
 10
730.0659648939235
 20
-204.8809790110415
 30
0.0
 10
729.246024140998
 20
-206.7170548911064
 30
0.0
 10
728.2553723034979
 20
-208.4958699268104
 30
0.0
 10
727.1188616546258
 20
-210.1722414639083
 30
0.0
 10
725.8656570573769
 20
-211.7040625348874
 30
0.0
 10
724.5289264820515
 20
-213.0533443911987
 30
0.0
 10
723.1448557014753
 20
-214.1876340921452
 30
0.0
 10
721.7516759066621
 20
-215.0814686177062
 30
0.0
 10
720.3886807472383
 20
-215.7171029293315
 30
0.0
 10
719.0930338432267
 20
-216.088462387704
 30
0.0
 10
717.9011240069809
 20
-216.191508503279
 30
0.0
 10
716.8462479574035
 20
-216.0648103004155
 30
0.0
 10
716.2659085521103
 20
-215.7846476953871
 30
0.0
 10
715.9827693075221
 20
-215.6479603920158
 30
0.0
  0
SPLINE
  5
17D
330
1F
100
AcDbEntity
  8
0
  6
Continuous
 62
     7
370
    25
100
AcDbSpline
210
0.0
220
0.0
230
1.0
 70
     8
 71
     3
 72
    13
 73
     9
 74
     0
 42
0.00000001
 43
0.00000001
 40
0.0
 40
0.0
 40
0.0
 40
0.0
 40
0.0884811926552487
 40
0.3131877944236912
 40
0.5300342937928695
 40
0.7392297751212361
 40
0.944982840904158
 40
1.0
 40
1.0
 40
1.0
 40
1.0
 10
531.1076360828505
 20
-536.2468301142181
 30
0.0
 10
531.2294449226812
 20
-536.3177224970233
 30
0.0
 10
531.6605991684937
 20
-536.5686529868358
 30
0.0
 10
532.2354907911251
 20
-537.2758912714628
 30
0.0
 10
532.8142537320457
 20
-538.3636870270578
 30
0.0
 10
533.181033957965
 20
-539.6839761716495
 30
0.0
 10
533.3087047909414
 20
-540.8142016884788
 30
0.0
 10
533.3161683517068
 20
-541.4877865853969
 30
0.0
 10
533.3177430096658
 20
-541.6298991577028
 30
0.0
  0
SPLINE
  5
17E
330
1F
100
AcDbEntity
  8
0
  6
Continuous
 62
     7
370
    25
100
AcDbSpline
210
0.0
220
0.0
230
1.0
 70
     8
 71
     3
 72
    23
 73
    19
 74
     0
 42
0.00000001
 43
0.00000001
 40
0.0
 40
0.0
 40
0.0
 40
0.0
 40
0.033589418317393
 40
0.0980090686472632
 40
0.1626136377275721
 40
0.2273772989805814
 40
0.2922707044179129
 40
0.3572397387519105
 40
0.4222220655242455
 40
0.48713487307874
 40
0.5519085973445612
 40
0.6164811775628424
 40
0.6808078259984959
 40
0.7448964574291608
 40
0.808882568985797
 40
0.8730223831884334
 40
0.9380494480027676
 40
0.9999999999999999
 40
0.9999999999999999
 40
0.9999999999999999
 40
0.9999999999999999
 10
533.3177430096657
 20
-541.6298991577028
 30
0.0
 10
533.3120161988717
 20
-541.9116299704832
 30
0.0
 10
533.2953061925551
 20
-542.73367976929
 30
0.0
 10
533.1067012205856
 20
-544.1947895368717
 30
0.0
 10
532.6820783377478
 20
-546.0048744774668
 30
0.0
 10
532.0511705046428
 20
-547.8526625369732
 30
0.0
 10
531.2312297517173
 20
-549.6887384170382
 30
0.0
 10
530.2405779142172
 20
-551.4675534527422
 30
0.0
 10
529.104067265345
 20
-553.1439249898401
 30
0.0
 10
527.850862668096
 20
-554.6757460608194
 30
0.0
 10
526.5141320927706
 20
-556.0250279171306
 30
0.0
 10
525.1300613121946
 20
-557.1593176180772
 30
0.0
 10
523.7368815173813
 20
-558.0531521436382
 30
0.0
 10
522.3738863579573
 20
-558.6887864552635
 30
0.0
 10
521.0782394539459
 20
-559.060145913636
 30
0.0
 10
519.8863296177001
 20
-559.163192029211
 30
0.0
 10
518.8314535681227
 20
-559.0364938263475
 30
0.0
 10
518.2511141628295
 20
-558.7563312213192
 30
0.0
 10
517.9679749182411
 20
-558.6196439179479
 30
0.0
  0
SPLINE
  5
17F
330
1F
100
AcDbEntity
  8
0
  6
Continuous
 62
     7
370
    25
100
AcDbSpline
210
0.0
220
0.0
230
1.0
 70
     8
 71
     3
 72
    13
 73
     9
 74
     0
 42
0.00000001
 43
0.00000001
 40
0.0
 40
0.0
 40
0.0
 40
0.0
 40
0.0884811926552132
 40
0.3131877944236485
 40
0.5300342937928098
 40
0.739229775121183
 40
0.9449828409040975
 40
1.0
 40
1.0
 40
1.0
 40
1.0
 10
656.6439854005073
 20
-212.6899385781821
 30
0.0
 10
656.7657942403379
 20
-212.7608309609872
 30
0.0
 10
657.1969484861503
 20
-213.0117614507996
 30
0.0
 10
657.7718401087818
 20
-213.7189997354265
 30
0.0
 10
658.3506030497024
 20
-214.8067954910217
 30
0.0
 10
658.717383275622
 20
-216.1270846356131
 30
0.0
 10
658.8450541085982
 20
-217.2573101524425
 30
0.0
 10
658.8525176693637
 20
-217.9308950493607
 30
0.0
 10
658.8540923273226
 20
-218.0730076216668
 30
0.0
  0
SPLINE
  5
180
330
1F
100
AcDbEntity
  8
0
  6
Continuous
 62
     7
370
    25
100
AcDbSpline
210
0.0
220
0.0
230
1.0
 70
     8
 71
     3
 72
    23
 73
    19
 74
     0
 42
0.00000001
 43
0.00000001
 40
0.0
 40
0.0
 40
0.0
 40
0.0
 40
0.0335894183173931
 40
0.0980090686472694
 40
0.1626136377275771
 40
0.2273772989805913
 40
0.2922707044179192
 40
0.3572397387519187
 40
0.4222220655242495
 40
0.4871348730787441
 40
0.5519085973445642
 40
0.6164811775628415
 40
0.6808078259984957
 40
0.7448964574291593
 40
0.8088825689857945
 40
0.8730223831884242
 40
0.9380494480027666
 40
0.9999999999999999
 40
0.9999999999999999
 40
0.9999999999999999
 40
0.9999999999999999
 10
658.8540923273227
 20
-218.0730076216668
 30
0.0
 10
658.8483655165286
 20
-218.3547384344473
 30
0.0
 10
658.831655510212
 20
-219.1767882332541
 30
0.0
 10
658.6430505382424
 20
-220.6378980008358
 30
0.0
 10
658.2184276554048
 20
-222.447982941431
 30
0.0
 10
657.5875198222996
 20
-224.2957710009375
 30
0.0
 10
656.767579069374
 20
-226.1318468810024
 30
0.0
 10
655.776927231874
 20
-227.9106619167064
 30
0.0
 10
654.6404165830018
 20
-229.5870334538043
 30
0.0
 10
653.387211985753
 20
-231.1188545247835
 30
0.0
 10
652.0504814104276
 20
-232.4681363810947
 30
0.0
 10
650.6664106298514
 20
-233.6024260820412
 30
0.0
 10
649.2732308350381
 20
-234.4962606076022
 30
0.0
 10
647.9102356756143
 20
-235.1318949192275
 30
0.0
 10
646.6145887716029
 20
-235.5032543776
 30
0.0
 10
645.4226789353571
 20
-235.606300493175
 30
0.0
 10
644.3678028857796
 20
-235.4796022903117
 30
0.0
 10
643.7874634804864
 20
-235.1994396852832
 30
0.0
 10
643.504324235898
 20
-235.0627523819119
 30
0.0
  0
SPLINE
  5
181
330
1F
100
AcDbEntity
  8
0
  6
Continuous
 62
     7
370
    25
100
AcDbSpline
210
0.0
220
0.0
230
1.0
 70
     8
 71
     3
 72
    13
 73
     9
 74
     0
 42
0.00000001
 43
0.00000001
 40
0.0
 40
0.0
 40
0.0
 40
0.0
 40
0.0884811926552432
 40
0.3131877944236817
 40
0.5300342937928364
 40
0.7392297751211987
 40
0.9449828409041324
 40
1.0
 40
1.0
 40
1.0
 40
1.0
 10
511.6870952572491
 20
-463.7626364765981
 30
0.0
 10
511.8089040970797
 20
-463.8335288594032
 30
0.0
 10
512.2400583428922
 20
-464.0844593492157
 30
0.0
 10
512.8149499655237
 20
-464.7916976338425
 30
0.0
 10
513.3937129064442
 20
-465.8794933894378
 30
0.0
 10
513.7604931323638
 20
-467.1997825340292
 30
0.0
 10
513.8881639653399
 20
-468.3300080508586
 30
0.0
 10
513.8956275261054
 20
-469.0035929477768
 30
0.0
 10
513.8972021840644
 20
-469.1457055200827
 30
0.0
  0
SPLINE
  5
182
330
1F
100
AcDbEntity
  8
0
  6
Continuous
 62
     7
370
    25
100
AcDbSpline
210
0.0
220
0.0
230
1.0
 70
     8
 71
     3
 72
    23
 73
    19
 74
     0
 42
0.00000001
 43
0.00000001
 40
0.0
 40
0.0
 40
0.0
 40
0.0
 40
0.033589418317393
 40
0.0980090686472637
 40
0.1626136377275731
 40
0.2273772989805831
 40
0.2922707044179139
 40
0.3572397387519059
 40
0.4222220655242417
 40
0.4871348730787359
 40
0.5519085973445528
 40
0.6164811775628359
 40
0.6808078259984897
 40
0.7448964574291519
 40
0.8088825689857877
 40
0.8730223831884224
 40
0.9380494480027596
 40
1.0
 40
1.0
 40
1.0
 40
1.0
 10
513.8972021840644
 20
-469.1457055200827
 30
0.0
 10
513.8914753732703
 20
-469.4274363328632
 30
0.0
 10
513.8747653669537
 20
-470.2494861316699
 30
0.0
 10
513.6861603949842
 20
-471.7105958992516
 30
0.0
 10
513.2615375121464
 20
-473.5206808398468
 30
0.0
 10
512.6306296790414
 20
-475.3684688993533
 30
0.0
 10
511.8106889261158
 20
-477.2045447794181
 30
0.0
 10
510.820037088616
 20
-478.983359815122
 30
0.0
 10
509.6835264397437
 20
-480.65973135222
 30
0.0
 10
508.4303218424949
 20
-482.1915524231991
 30
0.0
 10
507.0935912671692
 20
-483.5408342795104
 30
0.0
 10
505.7095204865934
 20
-484.675123980457
 30
0.0
 10
504.31634069178
 20
-485.5689585060181
 30
0.0
 10
502.9533455323563
 20
-486.2045928176434
 30
0.0
 10
501.6576986283447
 20
-486.5759522760159
 30
0.0
 10
500.4657887920989
 20
-486.6789983915909
 30
0.0
 10
499.4109127425214
 20
-486.5523001887275
 30
0.0
 10
498.8305733372281
 20
-486.2721375836991
 30
0.0
 10
498.5474340926397
 20
-486.1354502803279
 30
0.0
  0
SPLINE
  5
183
330
1F
100
AcDbEntity
  8
0
  6
Continuous
 62
     7
370
    25
100
AcDbSpline
210
0.0
220
0.0
230
1.0
 70
     8
 71
     3
 72
    13
 73
     9
 74
     0
 42
0.00000001
 43
0.00000001
 40
0.0
 40
0.0
 40
0.0
 40
0.0
 40
0.0884811926551934
 40
0.3131877944236007
 40
0.5300342937927744
 40
0.7392297751211496
 40
0.9449828409040558
 40
0.9999999999999999
 40
0.9999999999999999
 40
0.9999999999999999
 40
0.9999999999999999
 10
584.165540328881
 20
-276.9569780501092
 30
0.0
 10
584.2873491687116
 20
-277.0278704329143
 30
0.0
 10
584.718503414524
 20
-277.2788009227266
 30
0.0
 10
585.2933950371555
 20
-277.9860392073534
 30
0.0
 10
585.872157978076
 20
-279.0738349629485
 30
0.0
 10
586.2389382039956
 20
-280.3941241075399
 30
0.0
 10
586.3666090369719
 20
-281.5243496243694
 30
0.0
 10
586.3740725977375
 20
-282.1979345212878
 30
0.0
 10
586.3756472556964
 20
-282.340047093594
 30
0.0
  0
SPLINE
  5
184
330
1F
100
AcDbEntity
  8
0
  6
Continuous
 62
     7
370
    25
100
AcDbSpline
210
0.0
220
0.0
230
1.0
 70
     8
 71
     3
 72
    23
 73
    19
 74
     0
 42
0.00000001
 43
0.00000001
 40
0.0
 40
0.0
 40
0.0
 40
0.0
 40
0.033589418317393
 40
0.0980090686472729
 40
0.1626136377275786
 40
0.2273772989805959
 40
0.2922707044179219
 40
0.3572397387519206
 40
0.4222220655242505
 40
0.4871348730787438
 40
0.5519085973445623
 40
0.6164811775628378
 40
0.6808078259984959
 40
0.7448964574291635
 40
0.8088825689858024
 40
0.8730223831884366
 40
0.9380494480027696
 40
0.9999999999999999
 40
0.9999999999999999
 40
0.9999999999999999
 40
0.9999999999999999
 10
586.3756472556964
 20
-282.340047093594
 30
0.0
 10
586.3699204449023
 20
-282.6217779063744
 30
0.0
 10
586.3532104385858
 20
-283.4438277051812
 30
0.0
 10
586.1646054666161
 20
-284.904937472763
 30
0.0
 10
585.7399825837786
 20
-286.7150224133582
 30
0.0
 10
585.1090747506734
 20
-288.5628104728647
 30
0.0
 10
584.2891339977477
 20
-290.3988863529295
 30
0.0
 10
583.2984821602478
 20
-292.1777013886335
 30
0.0
 10
582.1619715113754
 20
-293.8540729257314
 30
0.0
 10
580.9087669141268
 20
-295.3858939967105
 30
0.0
 10
579.5720363388012
 20
-296.7351758530218
 30
0.0
 10
578.1879655582252
 20
-297.8694655539684
 30
0.0
 10
576.7947857634119
 20
-298.7633000795293
 30
0.0
 10
575.431790603988
 20
-299.3989343911546
 30
0.0
 10
574.1361436999765
 20
-299.7702938495272
 30
0.0
 10
572.9442338637307
 20
-299.8733399651021
 30
0.0
 10
571.8893578141533
 20
-299.7466417622388
 30
0.0
 10
571.3090184088602
 20
-299.4664791572102
 30
0.0
 10
571.0258791642717
 20
-299.329791853839
 30
0.0
  0
SPLINE
  5
185
330
1F
100
AcDbEntity
  8
0
  6
Continuous
 62
     7
370
    25
100
AcDbSpline
210
0.0
220
0.0
230
1.0
 70
     8
 71
     3
 72
    13
 73
     9
 74
     0
 42
0.00000001
 43
0.00000001
 40
0.0
 40
0.0
 40
0.0
 40
0.0
 40
0.0884811926552028
 40
0.3131877944236307
 40
0.5300342937927889
 40
0.7392297751211513
 40
0.9449828409040881
 40
1.0
 40
1.0
 40
1.0
 40
1.0
 10
531.1076360828583
 20
-368.8559636776253
 30
0.0
 10
531.229444922689
 20
-368.9268560604303
 30
0.0
 10
531.6605991685013
 20
-369.1777865502428
 30
0.0
 10
532.2354907911329
 20
-369.8850248348695
 30
0.0
 10
532.8142537320535
 20
-370.9728205904647
 30
0.0
 10
533.1810339579731
 20
-372.2931097350562
 30
0.0
 10
533.3087047909494
 20
-373.4233352518856
 30
0.0
 10
533.316168351715
 20
-374.096920148804
 30
0.0
 10
533.3177430096738
 20
-374.23903272111
 30
0.0
  0
SPLINE
  5
186
330
1F
100
AcDbEntity
  8
0
  6
Continuous
 62
     7
370
    25
100
AcDbSpline
210
0.0
220
0.0
230
1.0
 70
     8
 71
     3
 72
    23
 73
    19
 74
     0
 42
0.00000001
 43
0.00000001
 40
0.0
 40
0.0
 40
0.0
 40
0.0
 40
0.0335894183173933
 40
0.0980090686472639
 40
0.1626136377275732
 40
0.2273772989805829
 40
0.2922707044179138
 40
0.3572397387519048
 40
0.4222220655242398
 40
0.4871348730787284
 40
0.5519085973445499
 40
0.616481177562829
 40
0.6808078259984832
 40
0.7448964574291437
 40
0.8088825689857813
 40
0.8730223831884165
 40
0.938049448002753
 40
1.0
 40
1.0
 40
1.0
 40
1.0
 10
533.3177430096738
 20
-374.23903272111
 30
0.0
 10
533.3120161988797
 20
-374.5207635338905
 30
0.0
 10
533.2953061925632
 20
-375.3428133326972
 30
0.0
 10
533.1067012205935
 20
-376.803923100279
 30
0.0
 10
532.6820783377559
 20
-378.614008040874
 30
0.0
 10
532.0511705046508
 20
-380.4617961003805
 30
0.0
 10
531.2312297517253
 20
-382.2978719804453
 30
0.0
 10
530.2405779142254
 20
-384.0766870161493
 30
0.0
 10
529.1040672653533
 20
-385.7530585532472
 30
0.0
 10
527.8508626681045
 20
-387.2848796242264
 30
0.0
 10
526.5141320927789
 20
-388.6341614805376
 30
0.0
 10
525.1300613122029
 20
-389.7684511814842
 30
0.0
 10
523.7368815173897
 20
-390.6622857070452
 30
0.0
 10
522.373886357966
 20
-391.2979200186707
 30
0.0
 10
521.0782394539543
 20
-391.6692794770432
 30
0.0
 10
519.8863296177085
 20
-391.7723255926182
 30
0.0
 10
518.831453568131
 20
-391.6456273897548
 30
0.0
 10
518.2511141628377
 20
-391.3654647847265
 30
0.0
 10
517.9679749182492
 20
-391.2287774813552
 30
0.0
  0
LWPOLYLINE
  5
187
330
1F
100
AcDbEntity
  8
0
  6
Continuous
 62
     7
370
    25
100
AcDbPolyline
 90
      164
 70
   128
 43
0.0
 10
817.5389045319
 20
-293.6179614782
 10
817.4138893622
 20
-286.2008599525
 10
817.0390295878
 20
-278.9391174477
 10
816.4148821375
 20
-271.8435227254
 10
815.5423743064
 20
-264.9246177017
 10
814.4228023781
 20
-258.192681785
 10
813.0578296994
 20
-251.6577166039
 10
811.4494842084
 20
-245.3294311479
 10
809.6001554218
 20
-239.2172273425
 10
807.5125908853
 20
-233.3301860813
 10
805.1898920906
 20
-227.6770537339
 10
802.6355098686
 20
-222.2662291518
 10
799.8532392615
 20
-217.1057511903
 10
796.8472138853
 20
-212.2032867649
 10
793.6218997881
 20
-207.5661194608
 10
790.1820888149
 20
-203.2011387114
 10
786.5328914885
 20
-199.1148295632
 10
782.6797294167
 20
-195.3132630405
 10
778.6283272375
 20
-191.8020871258
 10
774.384704114
 20
-188.5865183687
 10
769.9551647916
 20
-185.6713341356
 10
765.3462902314
 20
-183.060865512
 10
760.5649278322
 20
-180.7589908678
 10
755.6181812583
 20
-178.7691300953
 10
750.5133998846
 20
-177.0942395281
 10
745.2581678784
 20
-175.7368075489
 10
739.8602929311
 20
-174.6988508927
 10
734.3277946588
 20
-173.9819116504
 10
728.668892687
 20
-173.5870549778
 10
722.8919944392
 20
-173.5148675128
 10
717.0056826458
 20
-173.7654565043
 10
711.0187025927
 20
-174.3384496526
 10
704.9399491286
 20
-175.2329956624
 10
698.7784534497
 20
-176.4477655079
 10
692.5433696823
 20
-177.9809544072
 10
686.2439612826
 20
-179.8302845033
 10
679.8895872734
 20
-181.9930082489
 10
673.4896883402
 20
-184.4659124881
 10
667.0537728047
 20
-187.2453232302
 10
660.5914024984
 20
-190.3271111083
 10
654.1121785566
 20
-193.7066975139
 10
647.6257271542
 20
-197.3790613999
 10
641.1416852036
 20
-201.3387467399
 10
634.6696860379
 20
-205.5798706345
 10
628.2193450978
 20
-210.0961320512
 10
621.8002456467
 20
-214.8808211863
 10
615.4219245326
 20
-219.9268294331
 10
609.0938580189
 20
-225.2266599437
 10
602.8254477061
 20
-230.7724387665
 10
596.6260065633
 20
-236.5559265452
 10
590.5047450925
 20
-242.5685307591
 10
584.4707576439
 20
-248.8013184899
 10
578.533008905
 20
-255.2450296929
 10
572.7003205816
 20
-261.8900909544
 10
566.9813582912
 20
-268.7266297153
 10
561.384618689
 20
-275.7444889389
 10
555.9184168438
 20
-282.9332422005
 10
550.5908738847
 20
-290.2822091786
 10
545.4099049355
 20
-297.7804715222
 10
540.3832073552
 20
-305.4168890727
 10
535.518249302
 20
-313.180116414
 10
530.8222586379
 20
-321.0586197293
 10
526.3022121902
 20
-329.0406939362
 10
521.9648253862
 20
-337.1144800772
 10
517.816542276
 20
-345.2679829385
 10
513.8635259584
 20
-353.4890888713
 10
510.1116494248
 20
-361.765583789
 10
506.5664868334
 20
-370.0851713136
 10
503.2333052278
 20
-378.4354910444
 10
500.1170567115
 20
-386.8041369222
 10
497.2223710911
 20
-395.1786756603
 10
494.5535489973
 20
-403.5466652173
 10
492.1145554957
 20
-411.8956732817
 10
489.9090141958
 20
-420.2132957428
 10
487.9402018676
 20
-428.4871751195
 10
486.2110435729
 20
-436.7050189198
 10
484.7241083202
 20
-444.8546179035
 10
483.4816052471
 20
-452.923864222
 10
482.485380339
 20
-460.9007694061
 10
481.7369136858
 20
-468.7734821779
 10
481.2373172837
 20
-476.5303060583
 10
480.9873333822
 20
-484.1597167436
 10
480.9873333822
 20
-491.6503792284
 10
481.2373172837
 20
-498.9911646447
 10
481.7369136858
 20
-506.1711667971
 10
482.485380339
 20
-513.1797183654
 10
483.4816052471
 20
-520.0064067536
 10
484.7241083202
 20
-526.6410895595
 10
486.2110435729
 20
-533.0739096431
 10
487.9402018676
 20
-539.2953097719
 10
489.9090141958
 20
-545.2960468196
 10
492.1145554957
 20
-551.0672054988
 10
494.5535489973
 20
-556.6002116065
 10
497.2223710911
 20
-561.8868447625
 10
500.1170567115
 20
-566.9192506226
 10
503.2333052278
 20
-571.6899525479
 10
506.5664868334
 20
-576.1918627126
 10
510.1116494248
 20
-580.4182926344
 10
513.8635259584
 20
-584.3629631119
 10
517.816542276
 20
-588.020013553
 10
521.9648253862
 20
-591.3840106828
 10
526.3022121902
 20
-594.4499566147
 10
530.8222586379
 20
-597.213296277
 10
535.518249302
 20
-599.6699241794
 10
540.3832073552
 20
-601.8161905129
 10
545.4099049355
 20
-603.6489065724
 10
550.5908738847
 20
-605.1653494939
 10
555.9184168438
 20
-606.3632663002
 10
561.384618689
 20
-607.2408772478
 10
566.9813582912
 20
-607.7968784711
 10
572.7003205816
 20
-608.03044392
 10
578.533008905
 20
-607.9412265864
 10
584.4707576439
 20
-607.5293590205
 10
590.5047450925
 20
-606.7954531334
 10
596.6260065633
 20
-605.7405992882
 10
602.8254477061
 20
-604.3663646798
 10
609.0938580189
 20
-602.6747910068
 10
615.4219245326
 20
-600.6683914382
 10
621.8002456467
 20
-598.3501468792
 10
628.2193450978
 20
-595.7235015427
 10
634.6696860379
 20
-592.7923578325
 10
641.1416852036
 20
-589.561070545
 10
647.6257271542
 20
-586.0344403996
 10
654.1121785566
 20
-582.2177069063
 10
660.5914024984
 20
-578.1165405811
 10
667.0537728047
 20
-573.7370345216
 10
673.4896883402
 20
-569.0856953543
 10
679.8895872734
 20
-564.1694335681
 10
686.2439612826
 20
-558.9955532468
 10
692.5433696823
 20
-553.5717412177
 10
698.7784534497
 20
-547.9060556315
 10
704.9399491286
 20
-542.00691399
 10
711.0187025927
 20
-535.8830806406
 10
717.0056826458
 20
-529.5436537546
 10
722.8919944392
 20
-522.9980518104
 10
728.668892687
 20
-516.2559996006
 10
734.3277946588
 20
-509.3275137835
 10
739.8602929311
 20
-502.2228880017
 10
745.2581678784
 20
-494.9526775887
 10
750.5133998846
 20
-487.5276838868
 10
755.6181812583
 20
-479.9589381997
 10
760.5649278322
 20
-472.2576854033
 10
765.3462902314
 20
-464.435367239
 10
769.9551647916
 20
-456.503605315
 10
774.384704114
 20
-448.4741838399
 10
778.6283272375
 20
-440.359032115
 10
782.6797294167
 20
-432.1702068108
 10
786.5328914885
 20
-423.9198740546
 10
790.1820888149
 20
-415.6202913554
 10
793.6218997881
 20
-407.2837893926
 10
796.8472138853
 20
-398.9227536966
 10
799.8532392615
 20
-390.5496062474
 10
802.6355098686
 20
-382.1767870196
 10
805.1898920906
 20
-373.8167355
 10
807.5125908853
 20
-365.4818722066
 10
809.6001554218
 20
-357.184580235
 10
811.4494842084
 20
-348.9371868616
 10
813.0578296994
 20
-340.751945228
 10
814.4228023781
 20
-332.6410161373
 10
815.5423743064
 20
-324.6164499867
 10
816.4148821375
 20
-316.6901688638
 10
817.0390295878
 20
-308.8739488344
 10
817.4138893622
 20
-301.1794024466
 10
817.5389045319
 20
-293.6179614782
  0
ARC
  5
188
330
1F
100
AcDbEntity
  8
0
  6
Continuous
 62
     7
370
    25
100
AcDbCircle
 10
571.9876812639
 20
-526.225753886
 30
0.0
 40
82.99893291196967
100
AcDbArc
 50
214.2116401466
 51
265.5146577593
  0
ARC
  5
189
330
1F
100
AcDbEntity
  8
0
  6
Continuous
 62
     7
370
    25
100
AcDbCircle
 10
727.995745191
 20
-256.0397817979
 30
0.0
 40
82.88439298606639
100
AcDbArc
 50
34.2777740673
 51
84.361339326
  0
ARC
  5
18A
330
1F
100
AcDbEntity
  8
0
  6
Continuous
 62
     7
370
    25
100
AcDbCircle
 10
749.2476816137
 20
-270.3894452259
 30
0.0
 40
84.7496906528219
100
AcDbArc
 50
34.1981949709
 51
59.6482588165
  0
ARC
  5
18B
330
1F
100
AcDbEntity
  8
0
  6
Continuous
 62
     7
370
    25
100
AcDbCircle
 10
595.0045765743
 20
-537.5785180334
 30
0.0
 40
84.73946500443815
100
AcDbArc
 50
240.3560692569
 51
265.7830401025
  0
LWPOLYLINE
  5
18C
330
1F
100
AcDbEntity
  8
0
  6
Continuous
 62
     7
370
    25
100
AcDbPolyline
 90
       40
 70
   128
 43
0.0
 10
533.6106362285
 20
-373.8308286652
 10
533.482440369
 20
-375.7385875647
 10
533.1011729961
 20
-377.7449482996
 10
532.4767087344
 20
-379.7979471808
 10
531.6252208803
 20
-381.8444126155
 10
530.5687625219
 20
-383.8313422242
 10
529.3346953758
 20
-385.7072755734
 10
527.9549811328
 20
-387.423626975
 10
526.4653536672
 20
-388.935943829
 10
524.9043935477
 20
-390.2050579235
 10
523.3125288216
 20
-391.19809987
 10
521.7309879491
 20
-391.8893504037
 10
520.2007320081
 20
-392.2609064989
 10
518.7613938236
 20
-392.3031450478
 10
517.4502514985
 20
-392.0149720943
 10
516.3012629304
 20
-391.4038511665
 10
515.3441863196
 20
-390.4856099753
 10
514.6038094476
 20
-389.2840304854
 10
514.0993076865
 20
-387.8302329743
 10
513.843747367
 20
-386.161870034
 10
513.843747367
 20
-384.3221513882
 10
514.0993076865
 20
-382.3587247835
 10
514.6038094476
 20
-380.3224419377
 10
515.3441863196
 20
-378.2660415068
 10
516.3012629304
 20
-376.2427831818
 10
517.4502514985
 20
-374.3050682905
 10
518.7613938236
 20
-372.5030826309
 10
520.2007320081
 20
-370.8834966849
 10
521.7309879491
 20
-369.4882568778
 10
523.3125288216
 20
-368.3534991878
 10
524.9043935477
 20
-367.5086132429
 10
526.4653536672
 20
-366.9754811454
 10
527.9549811328
 20
-366.7679107365
 10
529.3346953758
 20
-366.8912779807
 10
530.5687625219
 20
-367.3423877313
 10
531.6252208803
 20
-368.1095564826
 10
532.4767087344
 20
-369.1729149671
 10
533.1011729961
 20
-370.5049227584
 10
533.482440369
 20
-372.0710815545
 10
533.6106362285
 20
-373.8308286652
  0
LWPOLYLINE
  5
18D
330
1F
100
AcDbEntity
  8
0
  6
Continuous
 62
     7
370
    25
100
AcDbPolyline
 90
       40
 70
   128
 43
0.0
 10
533.6106362285
 20
-541.2216951018
 10
533.482440369
 20
-543.1294540013
 10
533.1011729961
 20
-545.1358147362
 10
532.4767087344
 20
-547.1888136173
 10
531.6252208803
 20
-549.2352790521
 10
530.5687625219
 20
-551.2222086607
 10
529.3346953758
 20
-553.09814201
 10
527.9549811328
 20
-554.8144934116
 10
526.4653536672
 20
-556.3268102656
 10
524.9043935477
 20
-557.5959243601
 10
523.3125288216
 20
-558.5889663066
 10
521.7309879491
 20
-559.2802168403
 10
520.2007320081
 20
-559.6517729355
 10
518.7613938236
 20
-559.6940114844
 10
517.4502514985
 20
-559.4058385309
 10
516.3012629303
 20
-558.7947176031
 10
515.3441863196
 20
-557.8764764119
 10
514.6038094476
 20
-556.674896922
 10
514.0993076865
 20
-555.2210994109
 10
513.843747367
 20
-553.5527364706
 10
513.843747367
 20
-551.7130178248
 10
514.0993076865
 20
-549.7495912201
 10
514.6038094476
 20
-547.7133083743
 10
515.3441863196
 20
-545.6569079434
 10
516.3012629303
 20
-543.6336496183
 10
517.4502514985
 20
-541.6959347271
 10
518.7613938236
 20
-539.8939490675
 10
520.2007320081
 20
-538.2743631215
 10
521.7309879491
 20
-536.8791233144
 10
523.3125288216
 20
-535.7443656244
 10
524.9043935477
 20
-534.8994796795
 10
526.4653536672
 20
-534.366347582
 10
527.9549811328
 20
-534.158777173
 10
529.3346953758
 20
-534.2821444173
 10
530.5687625219
 20
-534.7332541679
 10
531.6252208803
 20
-535.5004229192
 10
532.4767087344
 20
-536.5637814037
 10
533.1011729961
 20
-537.895789195
 10
533.482440369
 20
-539.4619479911
 10
533.6106362285
 20
-541.2216951018
  0
LWPOLYLINE
  5
18E
330
1F
100
AcDbEntity
  8
0
  6
Continuous
 62
     7
370
    25
100
AcDbPolyline
 90
       40
 70
   128
 43
0.0
 10
659.1469855461
 20
-552.4465364389
 10
659.0187896867
 20
-554.3542953384
 10
658.6375223138
 20
-556.3606560733
 10
658.0130580521
 20
-558.4136549545
 10
657.1615701979
 20
-560.4601203893
 10
656.1051118395
 20
-562.4470499979
 10
654.8710446934
 20
-564.3229833472
 10
653.4913304505
 20
-566.0393347487
 10
652.0017029848
 20
-567.5516516028
 10
650.4407428654
 20
-568.8207656973
 10
648.8488781393
 20
-569.8138076438
 10
647.2673372668
 20
-570.5050581775
 10
645.7370813257
 20
-570.8766142726
 10
644.2977431412
 20
-570.9188528216
 10
642.9866008161
 20
-570.630679868
 10
641.837612248
 20
-570.0195589402
 10
640.8805356372
 20
-569.1013177491
 10
640.1401587652
 20
-567.8997382592
 10
639.6356570042
 20
-566.4459407481
 10
639.3800966846
 20
-564.7775778077
 10
639.3800966846
 20
-562.937859162
 10
639.6356570042
 20
-560.9744325573
 10
640.1401587652
 20
-558.9381497114
 10
640.8805356372
 20
-556.8817492805
 10
641.837612248
 20
-554.8584909555
 10
642.9866008161
 20
-552.9207760642
 10
644.2977431412
 20
-551.1187904046
 10
645.7370813257
 20
-549.4992044586
 10
647.2673372668
 20
-548.1039646515
 10
648.8488781393
 20
-546.9692069615
 10
650.4407428654
 20
-546.1243210167
 10
652.0017029848
 20
-545.5911889191
 10
653.4913304505
 20
-545.3836185102
 10
654.8710446934
 20
-545.5069857544
 10
656.1051118395
 20
-545.958095505
 10
657.1615701979
 20
-546.7252642564
 10
658.0130580521
 20
-547.7886227408
 10
658.6375223138
 20
-549.1206305321
 10
659.0187896867
 20
-550.6867893282
 10
659.1469855461
 20
-552.4465364389
  0
LWPOLYLINE
  5
18F
330
1F
100
AcDbEntity
  8
0
  6
Continuous
 62
     7
370
    25
100
AcDbPolyline
 90
       40
 70
   128
 43
0.0
 10
804.1038756894
 20
-301.3738385405
 10
803.9756798299
 20
-303.28159744
 10
803.594412457
 20
-305.2879581749
 10
802.9699481953
 20
-307.3409570561
 10
802.1184603412
 20
-309.3874224909
 10
801.0620019828
 20
-311.3743520995
 10
799.8279348367
 20
-313.2502854487
 10
798.4482205937
 20
-314.9666368503
 10
796.9585931281
 20
-316.4789537044
 10
795.3976330086
 20
-317.7480677989
 10
793.8057682825
 20
-318.7411097454
 10
792.22422741
 20
-319.432360279
 10
790.693971469
 20
-319.8039163742
 10
789.2546332845
 20
-319.8461549231
 10
787.9434909594
 20
-319.5579819696
 10
786.7945023912
 20
-318.9468610418
 10
785.8374257805
 20
-318.0286198507
 10
785.0970489085
 20
-316.8270403607
 10
784.5925471474
 20
-315.3732428497
 10
784.3369868279
 20
-313.7048799093
 10
784.3369868279
 20
-311.8651612635
 10
784.5925471474
 20
-309.9017346589
 10
785.0970489085
 20
-307.865451813
 10
785.8374257805
 20
-305.8090513821
 10
786.7945023912
 20
-303.7857930571
 10
787.9434909594
 20
-301.8480781658
 10
789.2546332845
 20
-300.0460925062
 10
790.693971469
 20
-298.4265065602
 10
792.22422741
 20
-297.0312667531
 10
793.8057682825
 20
-295.8965090631
 10
795.3976330086
 20
-295.0516231182
 10
796.9585931281
 20
-294.5184910207
 10
798.4482205937
 20
-294.3109206118
 10
799.8279348367
 20
-294.434287856
 10
801.0620019828
 20
-294.8853976066
 10
802.1184603412
 20
-295.652566358
 10
802.9699481953
 20
-296.7159248424
 10
803.594412457
 20
-298.0479326337
 10
803.9756798299
 20
-299.6140914298
 10
804.1038756894
 20
-301.3738385405
  0
LWPOLYLINE
  5
190
330
1F
100
AcDbEntity
  8
0
  6
Continuous
 62
     7
370
    25
100
AcDbPolyline
 90
       40
 70
   128
 43
0.0
 10
731.6254306178
 20
-198.2500115759
 10
731.4972347583
 20
-200.1577704754
 10
731.1159673854
 20
-202.1641312103
 10
730.4915031237
 20
-204.2171300914
 10
729.6400152696
 20
-206.2635955262
 10
728.5835569112
 20
-208.2505251348
 10
727.3494897651
 20
-210.1264584841
 10
725.9697755221
 20
-211.8428098856
 10
724.4801480565
 20
-213.3551267397
 10
722.919187937
 20
-214.6242408342
 10
721.3273232109
 20
-215.6172827807
 10
719.7457823384
 20
-216.3085333144
 10
718.2155263974
 20
-216.6800894095
 10
716.7761882128
 20
-216.7223279585
 10
715.4650458878
 20
-216.434155005
 10
714.3160573196
 20
-215.8230340771
 10
713.3589807088
 20
-214.904792886
 10
712.6186038369
 20
-213.7032133961
 10
712.1141020758
 20
-212.249415885
 10
711.8585417562
 20
-210.5810529447
 10
711.8585417562
 20
-208.7413342989
 10
712.1141020758
 20
-206.7779076942
 10
712.6186038369
 20
-204.7416248483
 10
713.3589807088
 20
-202.6852244174
 10
714.3160573196
 20
-200.6619660924
 10
715.4650458878
 20
-198.7242512012
 10
716.7761882128
 20
-196.9222655415
 10
718.2155263974
 20
-195.3026795955
 10
719.7457823384
 20
-193.9074397885
 10
721.3273232109
 20
-192.7726820984
 10
722.919187937
 20
-191.9277961536
 10
724.4801480565
 20
-191.394664056
 10
725.9697755221
 20
-191.1870936471
 10
727.3494897651
 20
-191.3104608914
 10
728.5835569112
 20
-191.7615706419
 10
729.6400152696
 20
-192.5287393933
 10
730.4915031237
 20
-193.5920978777
 10
731.1159673854
 20
-194.9241056691
 10
731.4972347583
 20
-196.4902644652
 10
731.6254306178
 20
-198.2500115759
  0
LWPOLYLINE
  5
191
330
1F
100
AcDbEntity
  8
0
  6
Continuous
 62
     7
370
    25
100
AcDbPolyline
 90
       40
 70
   128
 43
0.0
 10
659.1469855461
 20
-217.6648035658
 10
659.0187896867
 20
-219.5725624653
 10
658.6375223138
 20
-221.5789232002
 10
658.0130580521
 20
-223.6319220813
 10
657.1615701979
 20
-225.6783875161
 10
656.1051118396
 20
-227.6653171247
 10
654.8710446935
 20
-229.541250474
 10
653.4913304505
 20
-231.2576018755
 10
652.0017029848
 20
-232.7699187296
 10
650.4407428654
 20
-234.0390328241
 10
648.8488781393
 20
-235.0320747706
 10
647.2673372668
 20
-235.7233253043
 10
645.7370813257
 20
-236.0948813994
 10
644.2977431412
 20
-236.1371199484
 10
642.9866008161
 20
-235.8489469949
 10
641.837612248
 20
-235.237826067
 10
640.8805356372
 20
-234.3195848759
 10
640.1401587652
 20
-233.118005386
 10
639.6356570042
 20
-231.6642078749
 10
639.3800966846
 20
-229.9958449346
 10
639.3800966846
 20
-228.1561262888
 10
639.6356570042
 20
-226.1926996841
 10
640.1401587652
 20
-224.1564168382
 10
640.8805356372
 20
-222.1000164073
 10
641.837612248
 20
-220.0767580823
 10
642.9866008161
 20
-218.1390431911
 10
644.2977431412
 20
-216.3370575314
 10
645.7370813257
 20
-214.7174715854
 10
647.2673372668
 20
-213.3222317784
 10
648.8488781393
 20
-212.1874740883
 10
650.4407428654
 20
-211.3425881435
 10
652.0017029848
 20
-210.8094560459
 10
653.4913304505
 20
-210.601885637
 10
654.8710446935
 20
-210.7252528813
 10
656.1051118396
 20
-211.1763626318
 10
657.1615701979
 20
-211.9435313832
 10
658.0130580521
 20
-213.0068898676
 10
658.6375223138
 20
-214.338897659
 10
659.0187896867
 20
-215.9050564551
 10
659.1469855461
 20
-217.6648035658
  0
LWPOLYLINE
  5
192
330
1F
100
AcDbEntity
  8
0
  6
Continuous
 62
     7
370
    25
100
AcDbPolyline
 90
      139
 70
   128
 43
0.0
 10
769.4556434112
 20
-321.3758372802
 10
769.3310685346
 20
-327.7657225396
 10
768.9576021052
 20
-334.286194877
 10
768.3360181892
 20
-340.9237396178
 10
767.4676051141
 20
-347.664599437
 10
766.3541627988
 20
-354.4948028732
 10
764.9979990224
 20
-361.4001932867
 10
763.4019246415
 20
-368.3664582014
 10
761.5692477639
 20
-375.3791589695
 10
759.5037668923
 20
-382.4237606978
 10
757.2097630513
 20
-389.4856623734
 10
754.6919909141
 20
-396.5502271267
 10
751.955668948
 20
-403.6028125684
 10
749.006468598
 20
-410.6288011383
 10
745.8505025323
 20
-417.6136304021
 10
742.4943119725
 20
-424.5428232345
 10
738.944853136
 20
-431.4020178253
 10
735.2094828184
 20
-438.1769974462
 10
731.2959431448
 20
-444.8537199174
 10
727.2123455241
 20
-451.418346712
 10
722.9671538358
 20
-457.8572716384
 10
718.569166888
 20
-464.1571490416
 10
714.0275001803
 20
-470.3049214635
 10
709.3515670104
 20
-476.287846707
 10
704.5510589638
 20
-482.0935242459
 10
699.6359258267
 20
-487.709920927
 10
694.6163549629
 20
-493.1253959104
 10
689.5027501996
 20
-498.3287247973
 10
684.3057102635
 20
-503.309122894
 10
679.0360068136
 20
-508.0562675649
 10
673.704562115
 20
-512.5603196277
 10
668.3224264009
 20
-516.8119437467
 10
662.9007549695
 20
-520.8023277818
 10
657.4507850628
 20
-524.5232010525
 10
651.9838125757
 20
-527.966851481
 10
646.5111686434
 20
-531.1261415757
 10
641.0441961562
 20
-533.9945232255
 10
635.5942262495
 20
-536.5660512715
 10
630.1725548181
 20
-538.8353958291
 10
624.7904191041
 20
-540.7978533351
 10
619.4589744054
 20
-542.4493562966
 10
614.1892709555
 20
-543.7864817217
 10
608.9922310195
 20
-544.8064582136
 10
603.8786262562
 20
-545.5071717153
 10
598.8590553924
 20
-545.8871698911
 10
593.9439222552
 20
-545.9456651368
 10
589.1434142087
 20
-545.6825362119
 10
584.4674810387
 20
-545.0983284915
 10
579.925814331
 20
-544.1942528351
 10
575.5278273832
 20
-542.9721830777
 10
571.2826356949
 20
-541.4346521454
 10
567.1990380742
 20
-539.5848468059
 10
563.2854984007
 20
-537.4266010633
 10
559.550128083
 20
-534.9643882114
 10
556.0006692465
 20
-532.2033115623
 10
552.6444786867
 20
-529.1490938691
 10
549.488512621
 20
-525.8080654642
 10
546.5393122711
 20
-522.1871511394
 10
543.8029903049
 20
-518.2938557924
 10
541.2852181677
 20
-514.1362488723
 10
538.9912143267
 20
-509.7229476545
 10
536.9257334551
 20
-505.0630993797
 10
535.0930565775
 20
-500.1663622949
 10
533.4969821966
 20
-495.0428856355
 10
532.1408184202
 20
-489.7032885894
 10
531.0273761049
 20
-484.1586382867
 10
530.1589630299
 20
-478.420426862
 10
529.5373791139
 20
-472.5005476347
 10
529.1639126844
 20
-466.4112704584
 10
529.0393378078
 20
-460.16521629
 10
529.1639126844
 20
-453.7753310306
 10
529.5373791139
 20
-447.2548586932
 10
530.1589630299
 20
-440.6173139524
 10
531.0273761049
 20
-433.8764541332
 10
532.1408184202
 20
-427.046250697
 10
533.4969821966
 20
-420.1408602835
 10
535.0930565775
 20
-413.1745953688
 10
536.9257334551
 20
-406.1618946007
 10
538.9912143267
 20
-399.1172928724
 10
541.2852181677
 20
-392.0553911968
 10
543.8029903049
 20
-384.9908264435
 10
546.5393122711
 20
-377.9382410018
 10
549.488512621
 20
-370.9122524319
 10
552.6444786867
 20
-363.9274231681
 10
556.0006692465
 20
-356.9982303357
 10
559.550128083
 20
-350.1390357449
 10
563.2854984007
 20
-343.364056124
 10
567.1990380742
 20
-336.6873336528
 10
571.2826356949
 20
-330.1227068582
 10
575.5278273832
 20
-323.6837819318
 10
579.925814331
 20
-317.3839045286
 10
584.4674810388
 20
-311.2361321067
 10
589.1434142087
 20
-305.2532068632
 10
593.9439222552
 20
-299.4475293243
 10
598.8590553924
 20
-293.8311326432
 10
603.8786262562
 20
-288.4156576598
 10
608.9922310195
 20
-283.2123287729
 10
614.1892709555
 20
-278.2319306762
 10
619.4589744054
 20
-273.4847860053
 10
624.7904191041
 20
-268.9807339425
 10
630.1725548181
 20
-264.7291098235
 10
635.5942262495
 20
-260.7387257884
 10
641.0441961562
 20
-257.0178525177
 10
646.5111686434
 20
-253.5742020892
 10
651.9838125757
 20
-250.4149119945
 10
657.4507850628
 20
-247.5465303446
 10
662.9007549695
 20
-244.9750022987
 10
668.3224264009
 20
-242.7056577411
 10
673.704562115
 20
-240.7432002351
 10
679.0360068136
 20
-239.0916972735
 10
684.3057102635
 20
-237.7545718485
 10
689.5027501996
 20
-236.7345953566
 10
694.6163549629
 20
-236.0338818549
 10
699.6359258267
 20
-235.6538836791
 10
704.5510589638
 20
-235.5953884334
 10
709.3515670104
 20
-235.8585173583
 10
714.0275001803
 20
-236.4427250787
 10
718.5691668881
 20
-237.3468007351
 10
722.9671538358
 20
-238.5688704925
 10
727.2123455241
 20
-240.1064014248
 10
731.2959431448
 20
-241.9562067642
 10
735.2094828184
 20
-244.1144525069
 10
738.944853136
 20
-246.5766653588
 10
742.4943119725
 20
-249.3377420079
 10
745.8505025323
 20
-252.3919597011
 10
749.006468598
 20
-255.7329881059
 10
751.955668948
 20
-259.3539024308
 10
754.6919909141
 20
-263.2471977778
 10
757.2097630513
 20
-267.4048046978
 10
759.5037668924
 20
-271.8181059156
 10
761.5692477639
 20
-276.4779541905
 10
763.4019246415
 20
-281.3746912753
 10
764.9979990224
 20
-286.4981679347
 10
766.3541627988
 20
-291.8377649808
 10
767.4676051141
 20
-297.3824152835
 10
768.3360181892
 20
-303.1206267082
 10
768.9576021052
 20
-309.0405059355
 10
769.3310685346
 20
-315.1297831118
 10
769.4556434112
 20
-321.3758372802
  0
LWPOLYLINE
  5
193
330
1F
100
AcDbEntity
  8
0
  6
Continuous
 62
     7
370
    25
100
AcDbPolyline
 90
       40
 70
   128
 43
0.0
 10
784.6833348638
 20
-396.2805113395
 10
784.5551390043
 20
-398.188270239
 10
784.1738716314
 20
-400.1946309739
 10
783.5494073697
 20
-402.2476298551
 10
782.6979195156
 20
-404.2940952898
 10
781.6414611572
 20
-406.2810248985
 10
780.4073940111
 20
-408.1569582477
 10
779.0276797681
 20
-409.8733096493
 10
777.5380523025
 20
-411.3856265033
 10
775.977092183
 20
-412.6547405978
 10
774.3852274569
 20
-413.6477825443
 10
772.8036865844
 20
-414.339033078
 10
771.2734306434
 20
-414.7105891732
 10
769.8340924589
 20
-414.7528277221
 10
768.5229501338
 20
-414.4646547686
 10
767.3739615656
 20
-413.8535338408
 10
766.4168849548
 20
-412.9352926496
 10
765.6765080829
 20
-411.7337131597
 10
765.1720063218
 20
-410.2799156486
 10
764.9164460023
 20
-408.6115527083
 10
764.9164460023
 20
-406.7718340625
 10
765.1720063218
 20
-404.8084074578
 10
765.6765080829
 20
-402.772124612
 10
766.4168849548
 20
-400.7157241811
 10
767.3739615656
 20
-398.6924658561
 10
768.5229501338
 20
-396.7547509648
 10
769.8340924589
 20
-394.9527653052
 10
771.2734306434
 20
-393.3331793592
 10
772.8036865844
 20
-391.9379395521
 10
774.3852274569
 20
-390.8031818621
 10
775.977092183
 20
-389.9582959172
 10
777.5380523025
 20
-389.4251638197
 10
779.0276797681
 20
-389.2175934108
 10
780.4073940111
 20
-389.340960655
 10
781.6414611572
 20
-389.7920704056
 10
782.6979195156
 20
-390.5592391569
 10
783.5494073697
 20
-391.6225976414
 10
784.1738716314
 20
-392.9546054327
 10
784.5551390043
 20
-394.5207642288
 10
784.6833348638
 20
-396.2805113395
  0
LWPOLYLINE
  5
194
330
1F
100
AcDbEntity
  8
0
  6
Continuous
 62
     7
370
    25
100
AcDbPolyline
 90
       40
 70
   128
 43
0.0
 10
784.6833348638
 20
-228.8896449029
 10
784.5551390043
 20
-230.7974038024
 10
784.1738716314
 20
-232.8037645373
 10
783.5494073697
 20
-234.8567634185
 10
782.6979195156
 20
-236.9032288532
 10
781.6414611572
 20
-238.8901584619
 10
780.4073940111
 20
-240.7660918111
 10
779.0276797681
 20
-242.4824432127
 10
777.5380523025
 20
-243.9947600668
 10
775.977092183
 20
-245.2638741612
 10
774.3852274569
 20
-246.2569161077
 10
772.8036865844
 20
-246.9481666414
 10
771.2734306434
 20
-247.3197227366
 10
769.8340924589
 20
-247.3619612855
 10
768.5229501338
 20
-247.073788332
 10
767.3739615656
 20
-246.4626674042
 10
766.4168849548
 20
-245.544426213
 10
765.6765080829
 20
-244.3428467231
 10
765.1720063218
 20
-242.889049212
 10
764.9164460023
 20
-241.2206862717
 10
764.9164460023
 20
-239.3809676259
 10
765.1720063218
 20
-237.4175410212
 10
765.6765080829
 20
-235.3812581754
 10
766.4168849548
 20
-233.3248577445
 10
767.3739615656
 20
-231.3015994195
 10
768.5229501338
 20
-229.3638845282
 10
769.8340924589
 20
-227.5618988686
 10
771.2734306434
 20
-225.9423129226
 10
772.8036865844
 20
-224.5470731155
 10
774.3852274569
 20
-223.4123154255
 10
775.977092183
 20
-222.5674294806
 10
777.5380523025
 20
-222.0342973831
 10
779.0276797681
 20
-221.8267269742
 10
780.4073940111
 20
-221.9500942184
 10
781.6414611572
 20
-222.401203969
 10
782.6979195156
 20
-223.1683727204
 10
783.5494073697
 20
-224.2317312048
 10
784.1738716314
 20
-225.5637389961
 10
784.5551390043
 20
-227.1298977922
 10
784.6833348638
 20
-228.8896449029
  0
LWPOLYLINE
  5
195
330
1F
100
AcDbEntity
  8
0
  6
Continuous
 62
     7
370
    25
100
AcDbPolyline
 90
       40
 70
   128
 43
0.0
 10
731.6254306177
 20
-488.179496967
 10
731.4972347583
 20
-490.0872558665
 10
731.1159673854
 20
-492.0936166014
 10
730.4915031237
 20
-494.1466154826
 10
729.6400152696
 20
-496.1930809174
 10
728.5835569112
 20
-498.180010526
 10
727.3494897651
 20
-500.0559438752
 10
725.9697755221
 20
-501.7722952768
 10
724.4801480565
 20
-503.2846121309
 10
722.919187937
 20
-504.5537262254
 10
721.3273232109
 20
-505.5467681718
 10
719.7457823384
 20
-506.2380187055
 10
718.2155263974
 20
-506.6095748007
 10
716.7761882128
 20
-506.6518133496
 10
715.4650458877
 20
-506.3636403961
 10
714.3160573196
 20
-505.7525194683
 10
713.3589807088
 20
-504.8342782771
 10
712.6186038368
 20
-503.6326987872
 10
712.1141020758
 20
-502.1789012762
 10
711.8585417562
 20
-500.5105383358
 10
711.8585417562
 20
-498.67081969
 10
712.1141020758
 20
-496.7073930854
 10
712.6186038368
 20
-494.6711102395
 10
713.3589807088
 20
-492.6147098086
 10
714.3160573196
 20
-490.5914514836
 10
715.4650458877
 20
-488.6537365923
 10
716.7761882128
 20
-486.8517509327
 10
718.2155263974
 20
-485.2321649867
 10
719.7457823384
 20
-483.8369251796
 10
721.3273232109
 20
-482.7021674896
 10
722.919187937
 20
-481.8572815447
 10
724.4801480565
 20
-481.3241494472
 10
725.9697755221
 20
-481.1165790383
 10
727.3494897651
 20
-481.2399462825
 10
728.5835569112
 20
-481.6910560331
 10
729.6400152696
 20
-482.4582247845
 10
730.4915031237
 20
-483.5215832689
 10
731.1159673854
 20
-484.8535910602
 10
731.4972347583
 20
-486.4197498563
 10
731.6254306177
 20
-488.179496967
  0
LWPOLYLINE
  5
196
330
1F
100
AcDbEntity
  8
0
  6
Continuous
 62
     7
370
    25
100
AcDbPolyline
 90
       40
 70
   128
 43
0.0
 10
586.6685404745
 20
-571.8613284288
 10
586.540344615
 20
-573.7690873283
 10
586.1590772421
 20
-575.7754480632
 10
585.5346129804
 20
-577.8284469444
 10
584.6831251263
 20
-579.8749123792
 10
583.6266667679
 20
-581.8618419878
 10
582.3925996218
 20
-583.7377753371
 10
581.0128853789
 20
-585.4541267386
 10
579.5232579132
 20
-586.9664435927
 10
577.9622977937
 20
-588.2355576872
 10
576.3704330677
 20
-589.2285996337
 10
574.7888921952
 20
-589.9198501674
 10
573.2586362541
 20
-590.2914062625
 10
571.8192980696
 20
-590.3336448115
 10
570.5081557445
 20
-590.0454718579
 10
569.3591671764
 20
-589.4343509301
 10
568.4020905656
 20
-588.516109739
 10
567.6617136936
 20
-587.3145302491
 10
567.1572119325
 20
-585.860732738
 10
566.901651613
 20
-584.1923697976
 10
566.901651613
 20
-582.3526511519
 10
567.1572119325
 20
-580.3892245472
 10
567.6617136936
 20
-578.3529417013
 10
568.4020905656
 20
-576.2965412704
 10
569.3591671764
 20
-574.2732829454
 10
570.5081557445
 20
-572.3355680541
 10
571.8192980696
 20
-570.5335823945
 10
573.2586362541
 20
-568.9139964485
 10
574.7888921952
 20
-567.5187566414
 10
576.3704330677
 20
-566.3839989514
 10
577.9622977937
 20
-565.5391130066
 10
579.5232579132
 20
-565.005980909
 10
581.0128853789
 20
-564.7984105001
 10
582.3925996218
 20
-564.9217777443
 10
583.6266667679
 20
-565.3728874949
 10
584.6831251263
 20
-566.1400562463
 10
585.5346129804
 20
-567.2034147307
 10
586.1590772421
 20
-568.535422522
 10
586.540344615
 20
-570.1015813181
 10
586.6685404745
 20
-571.8613284288
  0
LWPOLYLINE
  5
197
330
1F
100
AcDbEntity
  8
0
  6
Continuous
 62
     7
370
    25
100
AcDbPolyline
 90
       40
 70
   128
 43
0.0
 10
514.1900954029
 20
-468.7375014642
 10
514.0618995434
 20
-470.6452603637
 10
513.6806321705
 20
-472.6516210986
 10
513.0561679088
 20
-474.7046199797
 10
512.2046800547
 20
-476.7510854145
 10
511.1482216963
 20
-478.7380150231
 10
509.9141545502
 20
-480.6139483724
 10
508.5344403072
 20
-482.3302997739
 10
507.0448128416
 20
-483.842616628
 10
505.4838527221
 20
-485.1117307225
 10
503.891987996
 20
-486.104772669
 10
502.3104471235
 20
-486.7960232027
 10
500.7801911825
 20
-487.1675792978
 10
499.340852998
 20
-487.2098178468
 10
498.0297106729
 20
-486.9216448933
 10
496.8807221047
 20
-486.3105239654
 10
495.923645494
 20
-485.3922827743
 10
495.183268622
 20
-484.1907032844
 10
494.6787668609
 20
-482.7369057733
 10
494.4232065414
 20
-481.068542833
 10
494.4232065414
 20
-479.2288241872
 10
494.6787668609
 20
-477.2653975825
 10
495.183268622
 20
-475.2291147367
 10
495.923645494
 20
-473.1727143057
 10
496.8807221047
 20
-471.1494559807
 10
498.0297106729
 20
-469.2117410895
 10
499.340852998
 20
-467.4097554298
 10
500.7801911825
 20
-465.7901694838
 10
502.3104471235
 20
-464.3949296768
 10
503.891987996
 20
-463.2601719868
 10
505.4838527221
 20
-462.4152860419
 10
507.0448128416
 20
-461.8821539444
 10
508.5344403072
 20
-461.6745835354
 10
509.9141545502
 20
-461.7979507797
 10
511.1482216963
 20
-462.2490605303
 10
512.2046800547
 20
-463.0162292816
 10
513.0561679088
 20
-464.0795877661
 10
513.6806321705
 20
-465.4115955574
 10
514.0618995434
 20
-466.9777543535
 10
514.1900954029
 20
-468.7375014642
  0
LWPOLYLINE
  5
198
330
1F
100
AcDbEntity
  8
0
  6
Continuous
 62
     7
370
    25
100
AcDbPolyline
 90
       40
 70
   128
 43
0.0
 10
586.6685404745
 20
-281.9318430377
 10
586.5403446151
 20
-283.8396019372
 10
586.1590772421
 20
-285.8459626721
 10
585.5346129804
 20
-287.8989615532
 10
584.6831251263
 20
-289.945426988
 10
583.6266667679
 20
-291.9323565966
 10
582.3925996218
 20
-293.8082899459
 10
581.0128853789
 20
-295.5246413474
 10
579.5232579132
 20
-297.0369582015
 10
577.9622977938
 20
-298.306072296
 10
576.3704330677
 20
-299.2991142425
 10
574.7888921952
 20
-299.9903647762
 10
573.2586362541
 20
-300.3619208714
 10
571.8192980696
 20
-300.4041594203
 10
570.5081557445
 20
-300.1159864668
 10
569.3591671764
 20
-299.504865539
 10
568.4020905656
 20
-298.5866243478
 10
567.6617136936
 20
-297.3850448579
 10
567.1572119325
 20
-295.9312473468
 10
566.901651613
 20
-294.2628844065
 10
566.901651613
 20
-292.4231657607
 10
567.1572119325
 20
-290.459739156
 10
567.6617136936
 20
-288.4234563102
 10
568.4020905656
 20
-286.3670558792
 10
569.3591671764
 20
-284.3437975542
 10
570.5081557445
 20
-282.406082663
 10
571.8192980696
 20
-280.6040970033
 10
573.2586362541
 20
-278.9845110574
 10
574.7888921952
 20
-277.5892712503
 10
576.3704330677
 20
-276.4545135603
 10
577.9622977938
 20
-275.6096276154
 10
579.5232579132
 20
-275.0764955179
 10
581.0128853789
 20
-274.8689251089
 10
582.3925996218
 20
-274.9922923532
 10
583.6266667679
 20
-275.4434021038
 10
584.6831251263
 20
-276.2105708551
 10
585.5346129804
 20
-277.2739293396
 10
586.1590772421
 20
-278.6059371309
 10
586.5403446151
 20
-280.172095927
 10
586.6685404745
 20
-281.9318430377
  0
ARC
  5
199
330
1F
100
AcDbEntity
  8
0
  6
Continuous
 62
     7
370
    25
100
AcDbCircle
 10
705.2686984508
 20
-295.3950819965
 30
0.0
 40
58.36080445668121
100
AcDbArc
 50
35.2957665776
 51
83.2640377403
  0
ARC
  5
19A
330
1F
100
AcDbEntity
  8
0
  6
Continuous
 62
     7
370
    25
100
AcDbCircle
 10
594.7171269116
 20
-486.9377296278
 30
0.0
 40
58.41609147620242
100
AcDbArc
 50
217.8764919926
 51
265.5471403996
  0
ARC
  5
19B
330
1F
100
AcDbEntity
  8
0
  6
Continuous
 62
     7
370
    25
100
AcDbCircle
 10
619.7889309401
 20
-497.7840815936
 30
0.0
 40
61.70638934190454
100
AcDbArc
 50
218.2969276093
 51
226.7844683059
  0
ARC
  5
19C
330
1F
100
AcDbEntity
  8
0
  6
Continuous
 62
     7
370
    25
100
AcDbCircle
 10
727.008845409
 20
-312.5094799355
 30
0.0
 40
62.49025206698258
100
AcDbArc
 50
73.2667551755
 51
83.0010836348
  0
LINE
  5
19D
330
1F
100
AcDbEntity
  8
0
  6
Continuous
 62
     7
370
    25
100
AcDbLine
 10
782.2365049858
 20
-391.2981874481
 30
0.0
 11
781.9904184705
 21
-391.1449369672
 31
0.0
  0
LINE
  5
19E
330
1F
100
AcDbEntity
  8
0
  6
Continuous
 62
     7
370
    25
100
AcDbLine
 10
729.1786007398
 20
-483.1971730756
 30
0.0
 11
728.9325142245
 21
-483.0439225947
 31
0.0
  0
LINE
  5
19F
330
1F
100
AcDbEntity
  8
0
  6
Continuous
 62
     7
370
    25
100
AcDbLine
 10
801.6570458114
 20
-296.3915146491
 30
0.0
 11
801.4109592961
 21
-296.2382641682
 31
0.0
  0
LINE
  5
1A0
330
1F
100
AcDbEntity
  8
0
  6
Continuous
 62
     7
370
    25
100
AcDbLine
 10
656.7001556682
 20
-547.4642125476
 30
0.0
 11
656.4540691528
 21
-547.3109620667
 31
0.0
  0
LINE
  5
1A1
330
1F
100
AcDbEntity
  8
0
  6
Continuous
 62
     7
370
    25
100
AcDbLine
 10
782.2365049858
 20
-223.9073210115
 30
0.0
 11
781.9904184705
 21
-223.7540705306
 31
0.0
  0
LINE
  5
1A2
330
1F
100
AcDbEntity
  8
0
  6
Continuous
 62
     7
370
    25
100
AcDbLine
 10
584.2217105965
 20
-566.8790045374
 30
0.0
 11
583.9756240812
 21
-566.7257540566
 31
0.0
  0
LINE
  5
1A3
330
1F
100
AcDbEntity
  8
0
  6
Continuous
 62
     7
370
    25
100
AcDbLine
 10
729.1786007398
 20
-193.2676876845
 30
0.0
 11
728.9325142245
 21
-193.1144372036
 31
0.0
  0
LINE
  5
1A4
330
1F
100
AcDbEntity
  8
0
  6
Continuous
 62
     7
370
    25
100
AcDbLine
 10
531.1638063505
 20
-536.2393712104
 30
0.0
 11
530.9177198352
 21
-536.0861207295
 31
0.0
  0
LINE
  5
1A5
330
1F
100
AcDbEntity
  8
0
  6
Continuous
 62
     7
370
    25
100
AcDbLine
 10
656.7001556682
 20
-212.6824796744
 30
0.0
 11
656.4540691528
 21
-212.5292291935
 31
0.0
  0
LINE
  5
1A6
330
1F
100
AcDbEntity
  8
0
  6
Continuous
 62
     7
370
    25
100
AcDbLine
 10
511.7432655249
 20
-463.7551775728
 30
0.0
 11
511.4971790096
 21
-463.6019270919
 31
0.0
  0
LINE
  5
1A7
330
1F
100
AcDbEntity
  8
0
  6
Continuous
 62
     7
370
    25
100
AcDbLine
 10
584.2217105966
 20
-276.9495191463
 30
0.0
 11
583.9756240812
 21
-276.7962686654
 31
0.0
  0
LINE
  5
1A8
330
1F
100
AcDbEntity
  8
0
  6
Continuous
 62
     7
370
    25
100
AcDbLine
 10
531.1638063505
 20
-368.8485047738
 30
0.0
 11
530.9177198352
 21
-368.6952542929
 31
0.0
  0
LWPOLYLINE
  5
1A9
330
1F
100
AcDbEntity
  8
0
  6
Continuous
 62
     1
370
    25
100
AcDbPolyline
 90
       56
 70
   128
 43
0.0
 10
818.9531180943
 20
-293.6179614782
 10
818.8291037774
 20
-301.1644565377
 10
818.4572428349
 20
-308.8430599576
 10
817.8380810239
 20
-316.6425023285
 10
816.9725270499
 20
-324.5513368931
 10
815.8618512326
 20
-332.5579563461
 10
814.5076836419
 20
-340.6506098695
 10
812.9120117056
 20
-348.8174203781
 10
811.0771772921
 20
-357.0464019514
 10
809.0058732742
 20
-365.3254774241
 10
806.7011395759
 20
-373.6424961113
 10
804.1663587119
 20
-381.9852516412
 10
801.4052508226
 20
-390.3414998696
 10
798.4218682146
 20
-398.6989768499
 10
795.2205894133
 20
-407.0454168321
 10
791.8061127367
 20
-415.3685702647
 10
788.1834494003
 20
-423.6562217722
 10
784.357916162
 20
-431.8962080831
 10
780.3351275194
 20
-440.0764358813
 10
776.1209874696
 20
-448.1848995545
 10
771.7216808442
 20
-456.209698814
 10
767.1436642324
 20
-464.1390561603
 10
762.3936565048
 20
-471.9613341681
 10
757.4786289527
 20
-479.6650525658
 10
752.405795057
 20
-487.2389050842
 10
747.1825999008
 20
-494.6717760503
 10
741.8167092434
 20
-501.9527567011
 10
736.3159982692
 20
-509.0711611934
 10
730.6885400301
 20
-516.016542287
 10
724.9425935971
 20
-522.7787066773
 10
719.0865919389
 20
-529.3477299557
 10
713.1291295455
 20
-535.7139711746
 10
707.0789498146
 20
-541.8680869971
 10
700.9449322191
 20
-547.8010454096
 10
694.7360792758
 20
-553.5041389776
 10
688.4615033325
 20
-558.9689976247
 10
682.1304131947
 20
-564.1876009173
 10
675.7521006102
 20
-569.1522898354
 10
669.3359266323
 20
-573.8557780134
 10
662.891307881
 20
-578.2911624338
 10
656.4277027232
 20
-582.4519335584
 10
649.9545973907
 20
-586.3319848817
 10
643.4814920582
 20
-589.9256218934
 10
637.0178869004
 20
-593.2275704356
 10
630.5732681492
 20
-596.2329844435
 10
624.1570941713
 20
-598.9374530575
 10
617.7787815868
 20
-601.3370070972
 10
611.447691449
 20
-603.4281248859
 10
605.1731155057
 20
-605.20773742
 10
598.9642625623
 20
-606.6732328727
 10
592.8302449668
 20
-607.8224604274
 10
586.7800652359
 20
-608.653733434
 10
580.8226028425
 20
-609.1658318849
 10
574.9666011844
 20
-609.358004205
 10
569.2206547514
 20
-609.2299683548
 10
565.4968280974
 20
-608.970492025
  0
LWPOLYLINE
  5
1AA
330
1F
100
AcDbEntity
  8
0
  6
Continuous
 62
     1
370
    25
100
AcDbPolyline
 90
       15
 70
   128
 43
0.0
 10
796.4845143033
 20
-209.3588316561
 10
798.4218682146
 20
-212.2418226451
 10
801.4052508226
 20
-217.1547593853
 10
804.1663587119
 20
-222.3231003012
 10
806.7011395759
 20
-227.7392601399
 10
809.0058732742
 20
-233.3952899399
 10
811.0771772921
 20
-239.2828886974
 10
812.9120117056
 20
-245.3934155495
 10
814.5076836419
 20
-251.7179024554
 10
815.8618512326
 20
-258.2470673583
 10
816.9725270499
 20
-264.9713278085
 10
817.8380810239
 20
-271.8808150264
 10
818.4572428349
 20
-278.9653883867
 10
818.8291037774
 20
-286.2146503012
 10
818.9531180943
 20
-293.6179614782
  0
LWPOLYLINE
  5
1AB
330
1F
100
AcDbEntity
  8
0
  6
Continuous
 62
     1
370
    25
100
AcDbPolyline
 90
       15
 70
   128
 43
0.0
 10
841.5805350923
 20
-306.6804912674
 10
841.4565207754
 20
-299.2771800903
 10
841.0846598329
 20
-292.0279181759
 10
840.4654980219
 20
-284.9433448156
 10
839.5999440479
 20
-278.0338575977
 10
838.4892682306
 20
-271.3095971475
 10
837.1351006399
 20
-264.7804322446
 10
835.5394287035
 20
-258.4559453387
 10
833.7045942901
 20
-252.3454184866
 10
831.6332902721
 20
-246.457819729
 10
829.3285565739
 20
-240.8017899291
 10
826.7937757099
 20
-235.3856300904
 10
824.0326678206
 20
-230.2172891744
 10
821.0492852126
 20
-225.3043524342
 10
819.3440051163
 20
-222.7552611018
  0
LWPOLYLINE
  5
1AC
330
1F
100
AcDbEntity
  8
0
  6
Continuous
 62
     1
370
    25
100
AcDbPolyline
 90
       56
 70
   128
 43
0.0
 10
588.7733951717
 20
-622.0885725096
 10
591.8480717493
 20
-622.292498144
 10
597.5940181823
 20
-622.4205339942
 10
603.4500198405
 20
-622.2283616741
 10
609.4074822338
 20
-621.7162632232
 10
615.4576619648
 20
-620.8849902165
 10
621.5916795603
 20
-619.7357626619
 10
627.8005325036
 20
-618.2702672092
 10
634.0751084469
 20
-616.4906546751
 10
640.4061985847
 20
-614.3995368863
 10
646.7845111692
 20
-611.9999828467
 10
653.2006851471
 20
-609.2955142326
 10
659.6453038984
 20
-606.2901002247
 10
666.1089090562
 20
-602.9881516825
 10
672.5820143887
 20
-599.3945146709
 10
679.0551197212
 20
-595.5144633476
 10
685.518724879
 20
-591.353692223
 10
691.9633436302
 20
-586.9183078026
 10
698.3795176081
 20
-582.2148196245
 10
704.7578301926
 20
-577.2501307064
 10
711.0889203304
 20
-572.0315274138
 10
717.3634962737
 20
-566.5666687667
 10
723.5723492171
 20
-560.8635751988
 10
729.7063668126
 20
-554.9306167862
 10
735.7565465435
 20
-548.7765009637
 10
741.7140089369
 20
-542.4102597448
 10
747.570010595
 20
-535.8412364665
 10
753.315957028
 20
-529.0790720761
 10
758.9434152671
 20
-522.1336909826
 10
764.4441262414
 20
-515.0152864903
 10
769.8100168988
 20
-507.7343058395
 10
775.033212055
 20
-500.3014348733
 10
780.1060459507
 20
-492.7275823549
 10
785.0210735027
 20
-485.0238639573
 10
789.7710812304
 20
-477.2015859495
 10
794.3490978422
 20
-469.2722286031
 10
798.7484044676
 20
-461.2474293436
 10
802.9625445174
 20
-453.1389656705
 10
806.98533316
 20
-444.9587378723
 10
810.8108663983
 20
-436.7187515613
 10
814.4335297347
 20
-428.4311000539
 10
817.8480064113
 20
-420.1079466213
 10
821.0492852126
 20
-411.761506639
 10
824.0326678206
 20
-403.4040296587
 10
826.7937757099
 20
-395.0477814303
 10
829.3285565739
 20
-386.7050259004
 10
831.6332902721
 20
-378.3880072132
 10
833.7045942901
 20
-370.1089317405
 10
835.5394287035
 20
-361.8799501672
 10
837.1351006399
 20
-353.7131396586
 10
838.4892682306
 20
-345.6204861353
 10
839.5999440479
 20
-337.6138666822
 10
840.4654980219
 20
-329.7050321176
 10
841.0846598329
 20
-321.9055897468
 10
841.4565207754
 20
-314.2269863269
 10
841.5805350923
 20
-306.6804912674
  0
LWPOLYLINE
  5
1AD
330
1F
100
AcDbEntity
  8
0
  6
Continuous
 62
     1
370
    25
100
AcDbPolyline
 90
       61
 70
   128
 43
0.0
 10
712.1140757498
 20
-237.4371290783
 10
709.705120401
 20
-237.1779685284
 10
704.9328506371
 20
-236.9163874208
 10
700.0466300477
 20
-236.9745385768
 10
695.0565860714
 20
-237.3523014692
 10
689.9730613361
 20
-238.0488931268
 10
684.8065922232
 20
-239.062869757
 10
679.5678870289
 20
-240.3921297383
 10
674.2678037697
 20
-242.0339179766
 10
668.9173276774
 20
-243.9848316149
 10
663.5275484309
 20
-246.2408270868
 10
658.1096371708
 20
-248.7972284973
 10
652.6748233453
 20
-251.6487373139
 10
647.2343714361
 20
-254.7894433492
 10
641.7995576107
 20
-258.2128370104
 10
636.3816463505
 20
-261.9118227914
 10
630.991867104
 20
-265.8787339791
 10
625.6413910118
 20
-270.1053485445
 10
620.3413077525
 20
-274.5829061834
 10
615.1026025582
 20
-279.3021264739
 10
609.9361334453
 20
-284.2532281112
 10
604.85260871
 20
-289.4259491811
 10
599.8625647337
 20
-294.8095684294
 10
594.9763441444
 20
-300.3929274829
 10
590.2040743804
 20
-306.1644539775
 10
585.5556466998
 20
-312.1121855431
 10
581.0406956785
 20
-318.2237945978
 10
576.6685792422
 20
-324.4866138986
 10
572.4483592697
 20
-330.8876627961
 10
568.3887828115
 20
-337.4136741389
 10
564.4982639596
 20
-344.051121772
 10
560.7848664085
 20
-350.7862485716
 10
557.2562867416
 20
-357.6050949589
 10
553.9198384792
 20
-364.4935278335
 10
550.7824369198
 20
-371.4372698664
 10
547.8505848072
 20
-378.4219290917
 10
545.1303588526
 20
-385.4330287367
 10
542.6273971397
 20
-392.4560372268
 10
540.346887439
 20
-399.4763983043
 10
538.2935564549
 20
-406.4795611989
 10
536.4716600295
 20
-413.451010786
 10
534.8849743214
 20
-420.3762976718
 10
533.536787979
 20
-427.2410681417
 10
532.4298953244
 20
-434.0310939106
 10
531.5665905615
 20
-440.7323016132
 10
530.9486630215
 20
-447.3308019732
 10
530.5773934534
 20
-453.812918591
 10
530.4535513702
 20
-460.16521629
 10
530.5773934534
 20
-466.3745289633
 10
530.9486630215
 20
-472.427986862
 10
531.5665905615
 20
-478.3130432704
 10
532.4298953244
 20
-484.0175005103
 10
533.536787979
 20
-489.5295352229
 10
534.8849743214
 20
-494.8377228747
 10
536.4716600295
 20
-499.931061436
 10
538.2935564549
 20
-504.798994185
 10
540.346887439
 20
-509.4314315877
 10
542.6273971397
 20
-513.8187722101
 10
545.1303588526
 20
-517.9519226188
 10
547.8505848072
 20
-521.8223162285
 10
548.6071997293
 20
-522.8029545484
  0
LWPOLYLINE
  5
1AE
330
1F
100
AcDbEntity
  8
0
  6
Continuous
 62
     1
370
    25
100
AcDbPolyline
 90
       61
 70
   128
 43
0.0
 10
571.361163955
 20
-536.0258110322
 10
570.4780018051
 20
-534.8848460177
 10
567.7577758506
 20
-531.014452408
 10
565.2548141377
 20
-526.8813019993
 10
562.9743044369
 20
-522.4939613769
 10
560.9209734528
 20
-517.8615239742
 10
559.0990770275
 20
-512.9935912252
 10
557.5123913194
 20
-507.9002526638
 10
556.164204977
 20
-502.5920650121
 10
555.0573123223
 20
-497.0800302994
 10
554.1940075595
 20
-491.3755730596
 10
553.5760800195
 20
-485.4905166512
 10
553.2048104514
 20
-479.4370587524
 10
553.0809683682
 20
-473.2277460792
 10
553.2048104514
 20
-466.8754483801
 10
553.5760800195
 20
-460.3933317623
 10
554.1940075595
 20
-453.7948314023
 10
555.0573123223
 20
-447.0936236997
 10
556.164204977
 20
-440.3035979309
 10
557.5123913194
 20
-433.438827461
 10
559.0990770275
 20
-426.5135405751
 10
560.9209734528
 20
-419.542090988
 10
562.9743044369
 20
-412.5389280934
 10
565.2548141377
 20
-405.5185670159
 10
567.7577758506
 20
-398.4955585259
 10
570.4780018051
 20
-391.4844588809
 10
573.4098539177
 20
-384.4997996555
 10
576.5472554772
 20
-377.5560576227
 10
579.8837037396
 20
-370.6676247481
 10
583.4122834064
 20
-363.8487783608
 10
587.1256809576
 20
-357.1136515612
 10
591.0161998095
 20
-350.476203928
 10
595.0757762677
 20
-343.9501925852
 10
599.2959962402
 20
-337.5491436877
 10
603.6681126765
 20
-331.286324387
 10
608.1830636977
 20
-325.1747153322
 10
612.8314913784
 20
-319.2269837666
 10
617.6037611423
 20
-313.455457272
 10
622.4899817316
 20
-307.8720982185
 10
627.480025708
 20
-302.4884789703
 10
632.5635504433
 20
-297.3157579004
 10
637.7300195562
 20
-292.3646562631
 10
642.9687247505
 20
-287.6454359726
 10
648.2688080097
 20
-283.1678783337
 10
653.619284102
 20
-278.9412637683
 10
659.0090633484
 20
-274.9743525805
 10
664.4269746086
 20
-271.2753667996
 10
669.8617884341
 20
-267.8519731384
 10
675.3022403433
 20
-264.711267103
 10
680.7370541687
 20
-261.8597582864
 10
686.1549654289
 20
-259.303356876
 10
691.5447446754
 20
-257.0473614041
 10
696.8952207676
 20
-255.0964477658
 10
702.1953040269
 20
-253.4546595275
 10
707.4340092212
 20
-252.1253995461
 10
712.6004783341
 20
-251.1114229159
 10
717.6840030693
 20
-250.4148312583
 10
722.6740470457
 20
-250.0370683659
 10
727.560267635
 20
-249.97891721
 10
732.3325373989
 20
-250.2404983176
 10
734.623318328
 20
-250.4848767077
  0
LWPOLYLINE
  5
1AF
330
1F
100
AcDbEntity
  8
0
  6
Continuous
 62
     1
370
    25
100
AcDbPolyline
 90
       21
 70
   128
 43
0.0
 10
781.9904184705
 20
-391.1449369672
 10
781.7167818052
 20
-390.9997422878
 10
780.5187064787
 20
-390.6145604975
 10
779.183486972
 20
-390.5509522141
 10
777.7475445927
 20
-390.8106525059
 10
776.2500481055
 20
-391.3865774259
 10
774.7318453111
 20
-392.2630172436
 10
773.234348824
 20
-393.4160649654
 10
771.7984064447
 20
-394.8142684553
 10
770.463186938
 20
-396.4194883669
 10
769.2651116114
 20
-398.1879384856
 10
768.2368608368
 20
-400.0713801021
 10
767.4064826147
 20
-402.0184378388
 10
766.7966274985
 20
-403.9760010363
 10
766.423930746
 20
-405.8906724736
 10
766.2985585529
 20
-407.710224905
 10
766.423930746
 20
-409.3850256835
 10
766.7966274985
 20
-410.8693906096
 10
767.4064826147
 20
-412.1228300776
 10
768.2368608368
 20
-413.1111535264
 10
769.042897688
 20
-413.6914271166
  0
LWPOLYLINE
  5
1B0
330
1F
100
AcDbEntity
  8
0
  6
Continuous
 62
     1
370
    25
100
AcDbPolyline
 90
       21
 70
   128
 43
0.0
 10
728.9325142245
 20
-483.0439225947
 10
728.6588775592
 20
-482.8987279153
 10
727.4608022327
 20
-482.513546125
 10
726.125582726
 20
-482.4499378416
 10
724.6896403466
 20
-482.7096381334
 10
723.1921438595
 20
-483.2855630534
 10
721.6739410651
 20
-484.1620028711
 10
720.176444578
 20
-485.3150505929
 10
718.7405021987
 20
-486.7132540828
 10
717.405282692
 20
-488.3184739945
 10
716.2072073654
 20
-490.0869241131
 10
715.1789565908
 20
-491.9703657296
 10
714.3485783687
 20
-493.9174234663
 10
713.7387232525
 20
-495.8749866638
 10
713.3660265
 20
-497.7896581011
 10
713.2406543069
 20
-499.6092105325
 10
713.3660265
 20
-501.284011311
 10
713.7387232525
 20
-502.7683762371
 10
714.3485783687
 20
-504.0218157051
 10
715.1789565908
 20
-505.0101391539
 10
715.984993442
 20
-505.5904127442
  0
LWPOLYLINE
  5
1B1
330
1F
100
AcDbEntity
  8
0
  6
Continuous
 62
     1
370
    25
100
AcDbPolyline
 90
       21
 70
   128
 43
0.0
 10
801.4109592961
 20
-296.2382641682
 10
801.1373226309
 20
-296.0930694888
 10
799.9392473043
 20
-295.7078876985
 10
798.6040277976
 20
-295.6442794151
 10
797.1680854183
 20
-295.903979707
 10
795.6705889312
 20
-296.4799046269
 10
794.1523861368
 20
-297.3563444446
 10
792.6548896496
 20
-298.5093921664
 10
791.2189472703
 20
-299.9075956563
 10
789.8837277636
 20
-301.512815568
 10
788.6856524371
 20
-303.2812656866
 10
787.6574016624
 20
-305.1647073031
 10
786.8270234404
 20
-307.1117650398
 10
786.2171683241
 20
-309.0693282373
 10
785.8444715716
 20
-310.9839996746
 10
785.7190993785
 20
-312.803552106
 10
785.8444715716
 20
-314.4783528845
 10
786.2171683241
 20
-315.9627178106
 10
786.8270234404
 20
-317.2161572787
 10
787.6574016624
 20
-318.2044807274
 10
788.4634385136
 20
-318.7847543177
  0
LWPOLYLINE
  5
1B2
330
1F
100
AcDbEntity
  8
0
  6
Continuous
 62
     1
370
    25
100
AcDbPolyline
 90
       21
 70
   128
 43
0.0
 10
656.4540691528
 20
-547.3109620667
 10
656.1804324876
 20
-547.1657673872
 10
654.9823571611
 20
-546.7805855969
 10
653.6471376544
 20
-546.7169773136
 10
652.211195275
 20
-546.9766776054
 10
650.7136987879
 20
-547.5526025254
 10
649.1954959935
 20
-548.429042343
 10
647.6979995064
 20
-549.5820900648
 10
646.262057127
 20
-550.9802935548
 10
644.9268376203
 20
-552.5855134664
 10
643.7287622938
 20
-554.353963585
 10
642.7005115192
 20
-556.2374052015
 10
641.8701332971
 20
-558.1844629382
 10
641.2602781809
 20
-560.1420261357
 10
640.8875814283
 20
-562.056697573
 10
640.7622092353
 20
-563.8762500045
 10
640.8875814283
 20
-565.5510507829
 10
641.2602781809
 20
-567.035415709
 10
641.8701332971
 20
-568.2888551771
 10
642.7005115192
 20
-569.2771786258
 10
643.5065483703
 20
-569.8574522161
  0
LWPOLYLINE
  5
1B3
330
1F
100
AcDbEntity
  8
0
  6
Continuous
 62
     1
370
    25
100
AcDbPolyline
 90
       21
 70
   128
 43
0.0
 10
781.9904184705
 20
-223.7540705306
 10
781.7167818053
 20
-223.6088758512
 10
780.5187064787
 20
-223.2236940609
 10
779.183486972
 20
-223.1600857775
 10
777.7475445927
 20
-223.4197860693
 10
776.2500481056
 20
-223.9957109893
 10
774.7318453111
 20
-224.872150807
 10
773.234348824
 20
-226.0251985288
 10
771.7984064447
 20
-227.4234020187
 10
770.463186938
 20
-229.0286219303
 10
769.2651116115
 20
-230.797072049
 10
768.2368608368
 20
-232.6805136655
 10
767.4064826148
 20
-234.6275714022
 10
766.7966274985
 20
-236.5851345997
 10
766.423930746
 20
-238.499806037
 10
766.2985585529
 20
-240.3193584684
 10
766.423930746
 20
-241.9941592469
 10
766.7966274985
 20
-243.478524173
 10
767.4064826148
 20
-244.731963641
 10
768.2368608368
 20
-245.7202870898
 10
769.042897688
 20
-246.30056068
  0
LWPOLYLINE
  5
1B4
330
1F
100
AcDbEntity
  8
0
  6
Continuous
 62
     1
370
    25
100
AcDbPolyline
 90
       21
 70
   128
 43
0.0
 10
583.9756240812
 20
-566.7257540566
 10
583.701987416
 20
-566.5805593771
 10
582.5039120894
 20
-566.1953775868
 10
581.1686925827
 20
-566.1317693035
 10
579.7327502034
 20
-566.3914695953
 10
578.2352537163
 20
-566.9673945153
 10
576.7170509219
 20
-567.8438343329
 10
575.2195544347
 20
-568.9968820547
 10
573.7836120554
 20
-570.3950855447
 10
572.4483925487
 20
-572.0003054563
 10
571.2503172222
 20
-573.7687555749
 10
570.2220664475
 20
-575.6521971914
 10
569.3916882255
 20
-577.5992549281
 10
568.7818331093
 20
-579.5568181256
 10
568.4091363567
 20
-581.4714895629
 10
568.2837641636
 20
-583.2910419944
 10
568.4091363567
 20
-584.9658427728
 10
568.7818331093
 20
-586.4502076989
 10
569.3916882255
 20
-587.703647167
 10
570.2220664475
 20
-588.6919706157
 10
571.0281032987
 20
-589.272244206
  0
LWPOLYLINE
  5
1B5
330
1F
100
AcDbEntity
  8
0
  6
Continuous
 62
     1
370
    25
100
AcDbPolyline
 90
       21
 70
   128
 43
0.0
 10
728.9325142245
 20
-193.1144372036
 10
728.6588775592
 20
-192.9692425241
 10
727.4608022327
 20
-192.5840607338
 10
726.125582726
 20
-192.5204524505
 10
724.6896403467
 20
-192.7801527423
 10
723.1921438595
 20
-193.3560776623
 10
721.6739410651
 20
-194.2325174799
 10
720.176444578
 20
-195.3855652018
 10
718.7405021987
 20
-196.7837686917
 10
717.405282692
 20
-198.3889886033
 10
716.2072073654
 20
-200.157438722
 10
715.1789565908
 20
-202.0408803384
 10
714.3485783687
 20
-203.9879380751
 10
713.7387232525
 20
-205.9455012727
 10
713.3660265
 20
-207.86017271
 10
713.2406543069
 20
-209.6797251414
 10
713.3660265
 20
-211.3545259198
 10
713.7387232525
 20
-212.8388908459
 10
714.3485783687
 20
-214.092330314
 10
715.1789565908
 20
-215.0806537628
 10
715.984993442
 20
-215.660927353
  0
LWPOLYLINE
  5
1B6
330
1F
100
AcDbEntity
  8
0
  6
Continuous
 62
     1
370
    25
100
AcDbPolyline
 90
       21
 70
   128
 43
0.0
 10
530.9177198352
 20
-536.0861207295
 10
530.64408317
 20
-535.9409260501
 10
529.4460078434
 20
-535.5557442597
 10
528.1107883367
 20
-535.4921359764
 10
526.6748459574
 20
-535.7518362682
 10
525.1773494703
 20
-536.3277611882
 10
523.6591466759
 20
-537.2042010059
 10
522.1616501887
 20
-538.3572487277
 10
520.7257078094
 20
-539.7554522176
 10
519.3904883027
 20
-541.3606721292
 10
518.1924129762
 20
-543.1291222479
 10
517.1641622015
 20
-545.0125638643
 10
516.3337839795
 20
-546.9596216011
 10
515.7239288632
 20
-548.9171847986
 10
515.3512321107
 20
-550.8318562359
 10
515.2258599176
 20
-552.6514086673
 10
515.3512321107
 20
-554.3262094458
 10
515.7239288632
 20
-555.8105743719
 10
516.3337839795
 20
-557.0640138399
 10
517.1641622015
 20
-558.0523372887
 10
517.9701990527
 20
-558.6326108789
  0
LWPOLYLINE
  5
1B7
330
1F
100
AcDbEntity
  8
0
  6
Continuous
 62
     1
370
    25
100
AcDbPolyline
 90
       21
 70
   128
 43
0.0
 10
656.4540691528
 20
-212.5292291935
 10
656.1804324876
 20
-212.384034514
 10
654.9823571611
 20
-211.9988527237
 10
653.6471376544
 20
-211.9352444404
 10
652.211195275
 20
-212.1949447322
 10
650.7136987879
 20
-212.7708696522
 10
649.1954959935
 20
-213.6473094698
 10
647.6979995064
 20
-214.8003571917
 10
646.262057127
 20
-216.1985606816
 10
644.9268376204
 20
-217.8037805932
 10
643.7287622938
 20
-219.5722307119
 10
642.7005115192
 20
-221.4556723283
 10
641.8701332971
 20
-223.402730065
 10
641.2602781809
 20
-225.3602932626
 10
640.8875814283
 20
-227.2749646998
 10
640.7622092353
 20
-229.0945171313
 10
640.8875814283
 20
-230.7693179097
 10
641.2602781809
 20
-232.2536828358
 10
641.8701332971
 20
-233.5071223039
 10
642.7005115192
 20
-234.4954457527
 10
643.5065483704
 20
-235.0757193429
  0
LWPOLYLINE
  5
1B8
330
1F
100
AcDbEntity
  8
0
  6
Continuous
 62
     1
370
    25
100
AcDbPolyline
 90
       21
 70
   128
 43
0.0
 10
511.4971790096
 20
-463.6019270919
 10
511.2235423444
 20
-463.4567324124
 10
510.0254670178
 20
-463.0715506221
 10
508.6902475111
 20
-463.0079423388
 10
507.2543051318
 20
-463.2676426306
 10
505.7568086447
 20
-463.8435675506
 10
504.2386058503
 20
-464.7200073683
 10
502.7411093631
 20
-465.8730550901
 10
501.3051669838
 20
-467.27125858
 10
499.9699474771
 20
-468.8764784916
 10
498.7718721506
 20
-470.6449286103
 10
497.7436213759
 20
-472.5283702267
 10
496.9132431539
 20
-474.4754279634
 10
496.3033880376
 20
-476.432991161
 10
495.9306912851
 20
-478.3476625983
 10
495.805319092
 20
-480.1672150297
 10
495.9306912851
 20
-481.8420158081
 10
496.3033880376
 20
-483.3263807343
 10
496.9132431539
 20
-484.5798202023
 10
497.7436213759
 20
-485.5681436511
 10
498.5496582271
 20
-486.1484172413
  0
LWPOLYLINE
  5
1B9
330
1F
100
AcDbEntity
  8
0
  6
Continuous
 62
     1
370
    25
100
AcDbPolyline
 90
       21
 70
   128
 43
0.0
 10
583.9756240812
 20
-276.7962686654
 10
583.701987416
 20
-276.651073986
 10
582.5039120894
 20
-276.2658921956
 10
581.1686925828
 20
-276.2022839123
 10
579.7327502034
 20
-276.4619842041
 10
578.2352537163
 20
-277.0379091241
 10
576.7170509219
 20
-277.9143489418
 10
575.2195544348
 20
-279.0673966636
 10
573.7836120554
 20
-280.4656001535
 10
572.4483925487
 20
-282.0708200651
 10
571.2503172222
 20
-283.8392701838
 10
570.2220664475
 20
-285.7227118002
 10
569.3916882255
 20
-287.669769537
 10
568.7818331093
 20
-289.6273327345
 10
568.4091363567
 20
-291.5420041718
 10
568.2837641637
 20
-293.3615566032
 10
568.4091363567
 20
-295.0363573816
 10
568.7818331093
 20
-296.5207223078
 10
569.3916882255
 20
-297.7741617758
 10
570.2220664475
 20
-298.7624852246
 10
571.0281032987
 20
-299.3427588148
  0
LWPOLYLINE
  5
1BA
330
1F
100
AcDbEntity
  8
0
  6
Continuous
 62
     1
370
    25
100
AcDbPolyline
 90
       21
 70
   128
 43
0.0
 10
530.9177198352
 20
-368.6952542929
 10
530.64408317
 20
-368.5500596135
 10
529.4460078434
 20
-368.1648778232
 10
528.1107883367
 20
-368.1012695398
 10
526.6748459574
 20
-368.3609698316
 10
525.1773494703
 20
-368.9368947516
 10
523.6591466759
 20
-369.8133345693
 10
522.1616501887
 20
-370.9663822911
 10
520.7257078094
 20
-372.364585781
 10
519.3904883027
 20
-373.9698056926
 10
518.1924129762
 20
-375.7382558113
 10
517.1641622015
 20
-377.6216974278
 10
516.3337839795
 20
-379.5687551645
 10
515.7239288633
 20
-381.526318362
 10
515.3512321107
 20
-383.4409897993
 10
515.2258599176
 20
-385.2605422307
 10
515.3512321107
 20
-386.9353430092
 10
515.7239288633
 20
-388.4197079353
 10
516.3337839795
 20
-389.6731474033
 10
517.1641622015
 20
-390.6614708521
 10
517.9701990527
 20
-391.2417444423
  0
ENDSEC
  0
SECTION
  2
OBJECTS
  0
DICTIONARY
  5
C
330
0
100
AcDbDictionary
281
     1
  3
ACAD_GROUP
350
D
  3
ACAD_LAYOUT
350
1A
  3
ACAD_MLINESTYLE
350
17
  3
ACAD_PLOTSETTINGS
350
19
  3
ACAD_PLOTSTYLENAME
350
E
  3
ACAD_SCALELIST
350
47
  3
DWGPROPS
350
1BB
  0
DICTIONARY
  5
D
102
{ACAD_REACTORS
330
C
102
}
330
C
100
AcDbDictionary
281
     1
  0
DICTIONARY
  5
1A
102
{ACAD_REACTORS
330
C
102
}
330
C
100
AcDbDictionary
281
     1
  3
Layout1
350
1E
  3
Layout2
350
26
  3
Model
350
22
  0
DICTIONARY
  5
17
102
{ACAD_REACTORS
330
C
102
}
330
C
100
AcDbDictionary
281
     1
  3
Standard
350
18
  0
DICTIONARY
  5
19
102
{ACAD_REACTORS
330
C
102
}
330
C
100
AcDbDictionary
281
     1
  0
ACDBDICTIONARYWDFLT
  5
E
102
{ACAD_REACTORS
330
C
102
}
330
C
100
AcDbDictionary
281
     1
  3
Normal
350
F
100
AcDbDictionaryWithDefault
340
F
  0
DICTIONARY
  5
47
102
{ACAD_REACTORS
330
C
102
}
330
C
100
AcDbDictionary
281
     1
  3
A0
350
48
  3
A1
350
49
  3
A2
350
4A
  3
A3
350
4B
  3
A4
350
4C
  3
A5
350
4D
  3
A6
350
4E
  3
A7
350
4F
  3
A8
350
50
  3
A9
350
51
  3
B0
350
52
  3
B1
350
53
  3
B2
350
54
  3
B3
350
55
  3
B4
350
56
  3
B5
350
57
  3
B6
350
58
  3
B7
350
59
  3
B8
350
5A
  3
B9
350
5B
  3
C0
350
5C
  3
C1
350
5D
  3
C2
350
5E
  3
C3
350
5F
  3
C4
350
60
  3
C5
350
61
  3
C6
350
62
  3
C7
350
63
  3
C8
350
64
  3
C9
350
65
  3
D0
350
66
  3
D1
350
67
  3
D2
350
68
  0
XRECORD
  5
1BB
102
{ACAD_REACTORS
330
C
102
}
330
C
100
AcDbXrecord
280
     1
  1
DWGPROPS COOKIE
  2

  3

  4

  6

  7

  8
b.kav
  9

300
=
301
=
302
=
303
=
304
=
305
=
306
=
307
=
308
=
309
=
 40
0.0
 41
2459741.467556042
 42
2459741.467558542
  1

 90
        0
  0
LAYOUT
  5
1E
102
{ACAD_REACTORS
330
1A
102
}
330
1A
100
AcDbPlotSettings
  1

  2
none_device
  4

  6

 40
0.0
 41
0.0
 42
0.0
 43
0.0
 44
0.0
 45
0.0
 46
0.0
 47
0.0
 48
0.0
 49
0.0
140
0.0
141
0.0
142
1.0
143
1.0
 70
   688
 72
     1
 73
     0
 74
     5
  7

 75
    16
147
1.0
148
0.0
149
0.0
100
AcDbLayout
  1
Layout1
 70
     1
 71
     1
 10
0.0
 20
0.0
 11
420.0
 21
297.0
 12
0.0
 22
0.0
 32
0.0
 14
1.0000000000E+20
 24
1.0000000000E+20
 34
1.0000000000E+20
 15
-1.0000000000E+20
 25
-1.0000000000E+20
 35
-1.0000000000E+20
146
0.0
 13
0.0
 23
0.0
 33
0.0
 16
1.0
 26
0.0
 36
0.0
 17
0.0
 27
1.0
 37
0.0
 76
     0
330
1B
  0
LAYOUT
  5
26
102
{ACAD_REACTORS
330
1A
102
}
330
1A
100
AcDbPlotSettings
  1

  2
none_device
  4

  6

 40
0.0
 41
0.0
 42
0.0
 43
0.0
 44
0.0
 45
0.0
 46
0.0
 47
0.0
 48
0.0
 49
0.0
140
0.0
141
0.0
142
1.0
143
1.0
 70
   688
 72
     1
 73
     0
 74
     5
  7

 75
    16
147
1.0
148
0.0
149
0.0
100
AcDbLayout
  1
Layout2
 70
     1
 71
     2
 10
0.0
 20
0.0
 11
0.0
 21
0.0
 12
0.0
 22
0.0
 32
0.0
 14
0.0
 24
0.0
 34
0.0
 15
0.0
 25
0.0
 35
0.0
146
0.0
 13
0.0
 23
0.0
 33
0.0
 16
1.0
 26
0.0
 36
0.0
 17
0.0
 27
1.0
 37
0.0
 76
     0
330
23
  0
LAYOUT
  5
22
102
{ACAD_REACTORS
330
1A
102
}
330
1A
100
AcDbPlotSettings
  1

  2
none_device
  4
Letter_(8.50_x_11.00_Inches)
  6

 40
6.35
 41
6.35
 42
6.35000508
 43
6.35000508
 44
215.9
 45
279.4
 46
0.0
 47
0.0
 48
0.0
 49
0.0
140
0.0
141
0.0
142
1.0
143
1.0
 70
  1712
 72
     1
 73
     0
 74
     0
  7

 75
     0
147
1.0
148
0.0
149
0.0
100
AcDbLayout
  1
Model
 70
     1
 71
     0
 10
0.0
 20
0.0
 11
279.4
 21
215.9
 12
0.0
 22
0.0
 32
0.0
 14
0.0
 24
0.0
 34
0.0
 15
279.4
 25
215.9
 35
0.0
146
0.0
 13
0.0
 23
0.0
 33
0.0
 16
1.0
 26
0.0
 36
0.0
 17
0.0
 27
1.0
 37
0.0
 76
     0
330
1F
331
29
  0
MLINESTYLE
  5
18
102
{ACAD_REACTORS
330
17
102
}
330
17
100
AcDbMlineStyle
  2
Standard
 70
     0
  3

 62
   256
 51
90.0
 52
90.0
 71
     2
 49
0.5
 62
   256
  6
BYLAYER
 49
-0.5
 62
   256
  6
BYLAYER
  0
ACDBPLACEHOLDER
  5
F
102
{ACAD_REACTORS
330
E
102
}
330
E
  0
SCALE
  5
48
102
{ACAD_REACTORS
330
47
102
}
330
47
100
AcDbScale
 70
     0
300
1:1
140
1.0
141
1.0
290
     1
  0
SCALE
  5
49
102
{ACAD_REACTORS
330
47
102
}
330
47
100
AcDbScale
 70
     0
300
1:2
140
1.0
141
2.0
290
     0
  0
SCALE
  5
4A
102
{ACAD_REACTORS
330
47
102
}
330
47
100
AcDbScale
 70
     0
300
1:4
140
1.0
141
4.0
290
     0
  0
SCALE
  5
4B
102
{ACAD_REACTORS
330
47
102
}
330
47
100
AcDbScale
 70
     0
300
1:5
140
1.0
141
5.0
290
     0
  0
SCALE
  5
4C
102
{ACAD_REACTORS
330
47
102
}
330
47
100
AcDbScale
 70
     0
300
1:8
140
1.0
141
8.0
290
     0
  0
SCALE
  5
4D
102
{ACAD_REACTORS
330
47
102
}
330
47
100
AcDbScale
 70
     0
300
1:10
140
1.0
141
10.0
290
     0
  0
SCALE
  5
4E
102
{ACAD_REACTORS
330
47
102
}
330
47
100
AcDbScale
 70
     0
300
1:16
140
1.0
141
16.0
290
     0
  0
SCALE
  5
4F
102
{ACAD_REACTORS
330
47
102
}
330
47
100
AcDbScale
 70
     0
300
1:20
140
1.0
141
20.0
290
     0
  0
SCALE
  5
50
102
{ACAD_REACTORS
330
47
102
}
330
47
100
AcDbScale
 70
     0
300
1:30
140
1.0
141
30.0
290
     0
  0
SCALE
  5
51
102
{ACAD_REACTORS
330
47
102
}
330
47
100
AcDbScale
 70
     0
300
1:40
140
1.0
141
40.0
290
     0
  0
SCALE
  5
52
102
{ACAD_REACTORS
330
47
102
}
330
47
100
AcDbScale
 70
     0
300
1:50
140
1.0
141
50.0
290
     0
  0
SCALE
  5
53
102
{ACAD_REACTORS
330
47
102
}
330
47
100
AcDbScale
 70
     0
300
1:100
140
1.0
141
100.0
290
     0
  0
SCALE
  5
54
102
{ACAD_REACTORS
330
47
102
}
330
47
100
AcDbScale
 70
     0
300
2:1
140
2.0
141
1.0
290
     0
  0
SCALE
  5
55
102
{ACAD_REACTORS
330
47
102
}
330
47
100
AcDbScale
 70
     0
300
4:1
140
4.0
141
1.0
290
     0
  0
SCALE
  5
56
102
{ACAD_REACTORS
330
47
102
}
330
47
100
AcDbScale
 70
     0
300
8:1
140
8.0
141
1.0
290
     0
  0
SCALE
  5
57
102
{ACAD_REACTORS
330
47
102
}
330
47
100
AcDbScale
 70
     0
300
10:1
140
10.0
141
1.0
290
     0
  0
SCALE
  5
58
102
{ACAD_REACTORS
330
47
102
}
330
47
100
AcDbScale
 70
     0
300
100:1
140
100.0
141
1.0
290
     0
  0
SCALE
  5
59
102
{ACAD_REACTORS
330
47
102
}
330
47
100
AcDbScale
 70
     0
300
1/128" = 1'-0"
140
0.0078125
141
12.0
290
     0
  0
SCALE
  5
5A
102
{ACAD_REACTORS
330
47
102
}
330
47
100
AcDbScale
 70
     0
300
1/64" = 1'-0"
140
0.015625
141
12.0
290
     0
  0
SCALE
  5
5B
102
{ACAD_REACTORS
330
47
102
}
330
47
100
AcDbScale
 70
     0
300
1/32" = 1'-0"
140
0.03125
141
12.0
290
     0
  0
SCALE
  5
5C
102
{ACAD_REACTORS
330
47
102
}
330
47
100
AcDbScale
 70
     0
300
1/16" = 1'-0"
140
0.0625
141
12.0
290
     0
  0
SCALE
  5
5D
102
{ACAD_REACTORS
330
47
102
}
330
47
100
AcDbScale
 70
     0
300
3/32" = 1'-0"
140
0.09375
141
12.0
290
     0
  0
SCALE
  5
5E
102
{ACAD_REACTORS
330
47
102
}
330
47
100
AcDbScale
 70
     0
300
1/8" = 1'-0"
140
0.125
141
12.0
290
     0
  0
SCALE
  5
5F
102
{ACAD_REACTORS
330
47
102
}
330
47
100
AcDbScale
 70
     0
300
3/16" = 1'-0"
140
0.1875
141
12.0
290
     0
  0
SCALE
  5
60
102
{ACAD_REACTORS
330
47
102
}
330
47
100
AcDbScale
 70
     0
300
1/4" = 1'-0"
140
0.25
141
12.0
290
     0
  0
SCALE
  5
61
102
{ACAD_REACTORS
330
47
102
}
330
47
100
AcDbScale
 70
     0
300
3/8" = 1'-0"
140
0.375
141
12.0
290
     0
  0
SCALE
  5
62
102
{ACAD_REACTORS
330
47
102
}
330
47
100
AcDbScale
 70
     0
300
1/2" = 1'-0"
140
0.5
141
12.0
290
     0
  0
SCALE
  5
63
102
{ACAD_REACTORS
330
47
102
}
330
47
100
AcDbScale
 70
     0
300
3/4" = 1'-0"
140
0.75
141
12.0
290
     0
  0
SCALE
  5
64
102
{ACAD_REACTORS
330
47
102
}
330
47
100
AcDbScale
 70
     0
300
1" = 1'-0"
140
1.0
141
12.0
290
     0
  0
SCALE
  5
65
102
{ACAD_REACTORS
330
47
102
}
330
47
100
AcDbScale
 70
     0
300
1-1/2" = 1'-0"
140
1.5
141
12.0
290
     0
  0
SCALE
  5
66
102
{ACAD_REACTORS
330
47
102
}
330
47
100
AcDbScale
 70
     0
300
3" = 1'-0"
140
3.0
141
12.0
290
     0
  0
SCALE
  5
67
102
{ACAD_REACTORS
330
47
102
}
330
47
100
AcDbScale
 70
     0
300
6" = 1'-0"
140
6.0
141
12.0
290
     0
  0
SCALE
  5
68
102
{ACAD_REACTORS
330
47
102
}
330
47
100
AcDbScale
 70
     0
300
1'-0" = 1'-0"
140
12.0
141
12.0
290
     0
  0
ENDSEC
  0
EOF
